Oops, an error
Loading. Please wait.

Magic Hour tab

by Cast
2,854 views 9 this week
no commentswrite comment
1 2 3 4 5
2 more votes to show rating
add to favorites
×
Save as Personal and add changes to this tab that will be seen only by you. Learn more ›
×
You can save this tab as Personal to edit and correct it or add notes. All changes will be seen only by you. Learn more »
launch autoscroll
font size
0
reset
how to read this tab
guitar tuner
edit
Autoscroll
slow
fast
+/-
esc
set tempo
stop
Magic Hour by Cast


I couldn't find the tab for this song anywhere
so i wanted to be first to put it on
ultimate-guitar.com

Clean all the way through the song

Tuning: Half Step Down

Intro

 Guitar 1 (electric)
|-----||---------------------------------|
|-----||---------------------------3-----|
|---5-||---------------------0-2-2-2---5-|
|---5-||-----0-----0---2---2---0-------5-|
|-3-3-||---2-----2---3-3-0-----------3-3-|
|-----||-3-----0-------------------------|
|
|
|Guitar 2 (accoustic)
|-----||---------------------------------|
|-----||---------------------------3-----|
|---5-||---------------------0-2-2-2---5-|
|---5-||-----0-----0---2---2---0-------5-|
|-3-3-||---2-----2---3-3-0-----------3-3-|
|-----||-3-----0-------------------------|




 Gtr 1
|---------------------------------|
|---------------------------3-----|
|---------------------0-2-2-2---5-|
|-----0-----0---2---2---0-------5-|
|---2-----2---3-3-0-----------3-3-|
|-3-----0-------------------------|
|
|
|Gtr 2
|---------------------------------|
|---------------------------3-----|
|---------------------0-2-2-2---5-|
|-----0-----0---2---2---0-------5-|
|---2-----2---3-3-0-----------3-3-|
|-3-----0-------------------------|




Drums Kick in


 Gtr 1
|---------------------------------|
|---------------------------3-----|
|---------------------0-2-2-2---5-|
|-----0-----0---2---2---0-------5-|
|---2-----2---3-3-0-----------3-3-|
|-3-----0-------------------------|
|
|
|Gtr 2
|---------------------------------|
|---------------------------3-----|
|---------------------0-2-2-2---5-|
|-----0-----0---2---2---0-------5-|
|---2-----2---3-3-0-----------3-3-|
|-3-----0-------------------------|




 Gtr 1
|---------------------------------|
|---------------------------3-----|
|---------------------0-2-2-2---5-|
|-----0-----0---2---2---0-------5-|
|---2-----2---3-3-0-----------3-3-|
|-3-----0-------------------------|
|
|
|Gtr 2
|---------------------------------|
|---------------------------3-----|
|---------------------0-2-2-2---5-|
|-----0-----0---2---2---0-------5-|
|---2-----2---3-3-0-----------3-3-|
|-3-----0-------------------------|



=========================================
=========================================

Verse
 Gtr 1
|---------------------------------|
|---------------------------3-----|
|---------------------0-2-2-2---5-|
|-----0-----0---2---2---0-------5-|
|---2-----2---3-3-0-----------3-3-|
|-3-----0-------------------------|
|
|
|Gtr 2
|---------------------------------|
|---------------------------3-----|
|---------------------0-2-2-2---5-|
|-----0-----0---2---2---0-------5-|
|---2-----2---3-3-0-----------3-3-|
|-3-----0-------------------------|




 Gtr 1
|---------------------------------|
|---------------------------3-----|
|---------------------0-2-2-2---5-|
|-----0-----0---2---2---0-------5-|
|---2-----2---3-3-0-----------3-3-|
|-3-----0-------------------------|
|
|
|Gtr 2
|---------------------------------|
|---------------------------3-----|
|---------------------0-2-2-2---5-|
|-----0-----0---2---2---0-------5-|
|---2-----2---3-3-0-----------3-3-|
|-3-----0-------------------------|



=========================================
=========================================

Pre chorus
 Gtr 1
|-------------------------------------|
|-------------------------------------|
|-----9~~~-----7~~~-----9~~~-----7~~~-|
|---9~~~~~---7~~~~~---9~~~~~---7~~~~~-| Play softly and quietly
|-7~~~~~~~-5~~~~~~~-7~~~~~~~-5~~~~~~~-|
|-------------------------------------|
|
|
|Guitar 3 (electric)
|-------------------------------------|
|-------------------------------------|
|-9~~~~~~~-7~~~~~~~-9~~~~~~~-7~~~~~~~-|
|-9~~~~~~~-7~~~~~~~-9~~~~~~~-7~~~~~~~-| Play softly and quietly
|-7~~~~~~~-5~~~~~~~-7~~~~~~~-5~~~~~~~-|
|-------------------------------------|



==============================================================================
==============================================================================

Chorus

 Gtr 1
|-----12--17------||-----12--17------||-----------------||-----------------|
|---12--12--------||---12--12--------||-----------------||-----------------|
|-9---------------||-9---------------||-----------------||-----------------|
|-----------------||-----------------||-----------------||-----------------|
|-----------------||-----------------||-----------------||-----------------|
|-----------------||-----------------||-----------------||-----------------|
|
|
|Gtr 3
|-----------------||-----------------||-----------------||-----------------|
|-----------------||-----------------||-----------------||-----------------|
|-9-9-9-9-7-7-7-7-||-9-9-9-9-7-7-7-7-||-9-9-9-9-9-9-9-9-||-7-7-7-7-7-7-7-7-|
|-9-9-9-9-7-7-7-7-||-9-9-9-9-7-7-7-7-||-9-9-9-9-9-9-9-9-||-7-7-7-7-7-7-7-7-|
|-7-7-7-7-5-5-5-5-||-7-7-7-7-5-5-5-5-||-7-7-7-7-7-7-7-7-||-5-5-5-5-5-5-5-5-|
|-----------------||-----------------||-----------------||-----------------|



==============================================================================
==============================================================================


Chorus part 2
 Gtr 1
|-----------------------||-----------------------|
|-----------------------||-----------------------|
|-----------------------||-----------------------|
|-----5-------2-5-------||-----5-------2-5-------|
|---5-------2---5-------||---5-------2---5-------|
|-3-----0-------3-------||-3-----0-------3-------|
|
|
|Gtr 2
|-3-----0-------3-------||-3-----0-------3-------|
|-3-----1-------3-------||-3-----1-------3-------|
|-0-----0-------0-------||-0-----0-------0-------|
|-0-----2-------0-------||-0-----2-------0-------| These are just the chords
|-2-----3-------2-------||-2-----3-------2-------| so listen for the rhythm
|-3-------------3-------||-3-------------3-------|



 Gtr 1
|--------------------------------------------------|
|--------------------------------------------------|
|-------------5------------------------------------|
|-----5-----5-------5-------7---------10-----7---5-|
|---5---3---------5-------7---------10-----7---7-5-|
|-3-------------3-----3-5-----5-7/8------5-------3-|
|
|
|Gtr 2
|-3-----0-------3-------0---------0------0-------3-|
|-3-----1-------3-------1---------1------1-------3-|
|-0-----0-------0-------2---------0------2-------0-|
|-0-----2-------0-------2---------2------2-------0-|
|-2-----3-------2-------0---------3------0-------2-|
|-3-------------3--------------------------------3-|



 Gtr 1
|-----------------------------|
|-----------------------------|
|---------------------5-------|
|-----5-------7-----5---5-----|
|---5-------7-----3-----5-----|
|-3-----3-5-----5-------3-----|
|
|
|Gtr 2
|-3-------0-------0-----3-----|
|-3-------1-------1-----3-----|
|-0-------2-------0-----0-----|
|-0-------2-------2-----0-----|
|-2-------0-------3-----2-----|
|-3---------------------3-----|




======================================
======================================



Verse
 Gtr 1
|---------------------------------|
|---------------------------3-----|
|---------------------0-2-2-2---5-|
|-----0-----0---2---2---0-------5-|
|---2-----2---3-3-0-----------3-3-|
|-3-----0-------------------------|
|
|
|Gtr 2
|---------------------------------|
|---------------------------3-----|
|---------------------0-2-2-2---5-|
|-----0-----0---2---2---0-------5-|
|---2-----2---3-3-0-----------3-3-|
|-3-----0-------------------------|




 Gtr 1
|---------------------------------|
|---------------------------3-----|
|---------------------0-2-2-2---5-|
|-----0-----0---2---2---0-------5-|
|---2-----2---3-3-0-----------3-3-|
|-3-----0-------------------------|
|
|
|Gtr 2
|---------------------------------|
|---------------------------3-----|
|---------------------0-2-2-2---5-|
|-----0-----0---2---2---0-------5-|
|---2-----2---3-3-0-----------3-3-|
|-3-----0-------------------------|



=========================================
=========================================

Pre chorus
 Gtr 1
|-------------------------------------|
|-------------------------------------|
|-----9~~~-----7~~~-----9~~~-----7~~~-|
|---9~~~~~---7~~~~~---9~~~~~---7~~~~~-| Play softly and quietly
|-7~~~~~~~-5~~~~~~~-7~~~~~~~-5~~~~~~~-|
|-------------------------------------|
|
|
|Guitar 3 (electric)
|-------------------------------------|
|-------------------------------------|
|-9~~~~~~~-7~~~~~~~-9~~~~~~~-7~~~~~~~-|
|-9~~~~~~~-7~~~~~~~-9~~~~~~~-7~~~~~~~-| Play softly and quietly
|-7~~~~~~~-5~~~~~~~-7~~~~~~~-5~~~~~~~-|
|-------------------------------------|



==============================================================================
==============================================================================

Chorus

 Gtr 1
|-----12--17------||-----12--17------||-----------------||-----------------|
|---12--12--------||---12--12--------||-----------------||-----------------|
|-9---------------||-9---------------||-----------------||-----------------|
|-----------------||-----------------||-----------------||-----------------|
|-----------------||-----------------||-----------------||-----------------|
|-----------------||-----------------||-----------------||-----------------|
|
|
|Gtr 3
|-----------------||-----------------||-----------------||-----------------|
|-----------------||-----------------||-----------------||-----------------|
|-9-9-9-9-7-7-7-7-||-9-9-9-9-7-7-7-7-||-9-9-9-9-9-9-9-9-||-7-7-7-7-7-7-7-7-|
|-9-9-9-9-7-7-7-7-||-9-9-9-9-7-7-7-7-||-9-9-9-9-9-9-9-9-||-7-7-7-7-7-7-7-7-|
|-7-7-7-7-5-5-5-5-||-7-7-7-7-5-5-5-5-||-7-7-7-7-7-7-7-7-||-5-5-5-5-5-5-5-5-|
|-----------------||-----------------||-----------------||-----------------|



==============================================================================
==============================================================================


Chorus part 2
 Gtr 1
|-----------------------||-----------------------|
|-----------------------||-----------------------|
|-----------------------||-----------------------|
|-----5-------2-5-------||-----5-------2-5-------|
|---5-------2---5-------||---5-------2---5-------|
|-3-----0-------3-------||-3-----0-------3-------|
|
|
|Gtr 2
|-3-----0-------3-------||-3-----0-------3-------|
|-3-----1-------3-------||-3-----1-------3-------|
|-0-----0-------0-------||-0-----0-------0-------|
|-0-----2-------0-------||-0-----2-------0-------| These are just the chords
|-2-----3-------2-------||-2-----3-------2-------| so listen for the rhythm
|-3-------------3-------||-3-------------3-------|



 Gtr 1
|--------------------------------------------------|
|--------------------------------------------------|
|-------------5------------------------------------|
|-----5-----5-------5-------7---------10-----7---5-|
|---5---3---------5-------7---------10-----7---7-5-|
|-3-------------3-----3-5-----5-7/8------5-------3-|
|
|
|Gtr 2
|-3-----0-------3-------0---------0------0-------3-|
|-3-----1-------3-------1---------1------1-------3-|
|-0-----0-------0-------2---------0------2-------0-|
|-0-----2-------0-------2---------2------2-------0-|
|-2-----3-------2-------0---------3------0-------2-|
|-3-------------3--------------------------------3-|



 Gtr 1
|-----------------------------|
|-----------------------------|
|---------------------5-------|
|-----5-------7-----5---5-----|
|---5-------7-----3-----5-----|
|-3-----3-5-----5-------3-----|
|
|
|Gtr 2
|-3-------0-------0-----3-----|
|-3-------1-------1-----3-----|
|-0-------2-------0-----0-----|
|-0-------2-------2-----0-----|
|-2-------0-------3-----2-----|
|-3---------------------3-----|




======================================
======================================

Solo

|-----------------------------------|
|-15b(17)(15)-12--------------------|
|----------------14~~-12-14-14b(16)-|
|-----------------------------------|
|-----------------------------------|
|-----------------------------------|
|
|
|
|-3------0------0------2------|
|-3------0------1------3------|
|-0------0------0------2------|
|-0------2------2------0------| These are just the chords
|-2------2------3-------------| so listen to the rhythm
|-3------0--------------------|





|--------------------------------|
|-15b(17)(15)-12-----------------|
|----------------14~~-12-14b(16)-|
|--------------------------------|
|--------------------------------|
|--------------------------------|
|
|
|
|-3------0------0------2------|
|-3------0------1------3------|
|-0------0------0------2------|
|-0------2------2------0------|
|-2------2------3-------------|
|-3------0--------------------|



====================================
====================================



Pre chorus
 Gtr 1
|-------------------------------------|
|-------------------------------------|
|-----9~~~-----7~~~-----9~~~-----7~~~-|
|---9~~~~~---7~~~~~---9~~~~~---7~~~~~-| Play softly and quietly
|-7~~~~~~~-5~~~~~~~-7~~~~~~~-5~~~~~~~-|
|-------------------------------------|
|
|
|Guitar 3 (electric)
|-------------------------------------|
|-------------------------------------|
|-9~~~~~~~-7~~~~~~~-9~~~~~~~-7~~~~~~~-|
|-9~~~~~~~-7~~~~~~~-9~~~~~~~-7~~~~~~~-| Play softly and quietly
|-7~~~~~~~-5~~~~~~~-7~~~~~~~-5~~~~~~~-|
|-------------------------------------|



==============================================================================
==============================================================================

Chorus

 Gtr 1
|-----12--17------||-----12--17------||-----------------||-----------------|
|---12--12--------||---12--12--------||-----------------||-----------------|
|-9---------------||-9---------------||-----------------||-----------------|
|-----------------||-----------------||-----------------||-----------------|
|-----------------||-----------------||-----------------||-----------------|
|-----------------||-----------------||-----------------||-----------------|
|
|
|Gtr 3
|-----------------||-----------------||-----------------||-----------------|
|-----------------||-----------------||-----------------||-----------------|
|-9-9-9-9-7-7-7-7-||-9-9-9-9-7-7-7-7-||-9-9-9-9-9-9-9-9-||-7-7-7-7-7-7-7-7-|
|-9-9-9-9-7-7-7-7-||-9-9-9-9-7-7-7-7-||-9-9-9-9-9-9-9-9-||-7-7-7-7-7-7-7-7-|
|-7-7-7-7-5-5-5-5-||-7-7-7-7-5-5-5-5-||-7-7-7-7-7-7-7-7-||-5-5-5-5-5-5-5-5-|
|-----------------||-----------------||-----------------||-----------------|



==============================================================================
==============================================================================


Chorus part 2
 Gtr 1
|-----------------------||-----------------------|
|-----------------------||-----------------------|
|-----------------------||-----------------------|
|-----5-------2-5-------||-----5-------2-5-------|
|---5-------2---5-------||---5-------2---5-------|
|-3-----0-------3-------||-3-----0-------3-------|
|
|
|Gtr 2
|-3-----0-------3-------||-3-----0-------3-------|
|-3-----1-------3-------||-3-----1-------3-------|
|-0-----0-------0-------||-0-----0-------0-------|
|-0-----2-------0-------||-0-----2-------0-------| These are just the chords
|-2-----3-------2-------||-2-----3-------2-------| so listen for the rhythm
|-3-------------3-------||-3-------------3-------|



 Gtr 1
|--------------------------------------------------|
|--------------------------------------------------|
|-------------5------------------------------------|
|-----5-----5-------5-------7---------10-----7---5-|
|---5---3---------5-------7---------10-----7---7-5-|
|-3-------------3-----3-5-----5-7/8------5-------3-|
|
|
|Gtr 2
|-3-----0-------3-------0---------0------0-------3-|
|-3-----1-------3-------1---------1------1-------3-|
|-0-----0-------0-------2---------0------2-------0-|
|-0-----2-------0-------2---------2------2-------0-|
|-2-----3-------2-------0---------3------0-------2-|
|-3-------------3--------------------------------3-|



 Gtr 1
|-----------------------------|
|-----------------------------|
|---------------------5-------|
|-----5-------7-----5---5-----|
|---5-------7-----3-----5-----|
|-3-----3-5-----5-------3-----|
|
|
|Gtr 2
|-3-------0-------0-----3-----|
|-3-------1-------1-----3-----|
|-0-------2-------0-----0-----|
|-0-------2-------2-----0-----|
|-2-------0-------3-----2-----|
|-3---------------------3-----|





 Gtr 1
|-----------------------||-----------------------|
|-----------------------||-----------------------|
|-----------------------||-----------------------|
|-----5-------2-5-------||-----5-------2-5-------|
|---5-------2---5-------||---5-------2---5-------|
|-3-----0-------3-------||-3-----0-------3-------|
|
|
|Gtr 2
|-3-----0-------3-------||-3-----0-------3-------|
|-3-----1-------3-------||-3-----1-------3-------|
|-0-----0-------0-------||-0-----0-------0-------|
|-0-----2-------0-------||-0-----2-------0-------| These are just the chords
|-2-----3-------2-------||-2-----3-------2-------| so listen for the rhythm
|-3-------------3-------||-3-------------3-------|




 Gtr 1
|--------------------------------------------------|
|--------------------------------------------------|
|--------------------------------------------------|
|--------------------------------------------------|
|--------------------------------------------------|
|--------------------------------------------------|
|
|
|Gtr 2
|--------------------------------------------------|
|--------------------------------------------------|
|-------------5------------------------------------|
|-----5-----5-------5-------7---------10-----7---5-|
|---5---3---------5-------7---------10-----7---7-5-|
|-3-------------3-----3-5-----5-7/8------5-------3-|




 Gtr 1
|-----------------------------|
|-----------------------------|
|-----------------------------|
|-----------------------------|
|-----------------------------|
|-----------------------------|
|
|
|Gtr 2
|-----------------------------|
|-----------------------------|
|---------------------5-------|
|-----5-------7-----5---5-----|
|---5-------7-----3-----5-----|
|-3-----3-5-----5-------3-----|



The End
Please Comment, Correct and Rate this tab.
Or E-Mail me at JORDANAULTepsspaYOURFACE@live.co.uk

            
            
Suggest correction
Creating personal tab
Creating personal tab
You can edit any tab online and save it as your Personal.

You can edit, replace or remove any tab part or add personal notes – all changes will be seen only by you.

Personal tabs can be accessed anytime from any device, even offline.
Learn more »
Give kudos to tab author, rate the tab!
1 2 3 4 5
comments
print report bad tab
guest
You may want to rate the tab now too:
select rating
Wanna post a correction for this tab? Suggest correction