Oops, an error
Loading. Please wait.

Cross Bone Style tab

12,930 views 9 this week
2 commentsread comments
1 2 3 4 5
x 7
add to favorites
×
Save as Personal and add changes to this tab that will be seen only by you. Learn more ›
×
You can save this tab as Personal to edit and correct it or add notes. All changes will be seen only by you. Learn more »
launch autoscroll
font size
0
reset
how to read this tab
guitar tuner
edit
Autoscroll
slow
fast
+/-
esc
set tempo
stop
this si a very easy song to play the other one on this site is incorect
i no this is right i hope its helps.



intro

E]--------------------------------0-----------------0-]
B]----------------------------------------------------]
G]--4-4-4-4-4-4-4-4-4-4-4-4-4-4-4--4--4-4-4-4-4-4-4---]
D]-4-4-4-4-0-0-0-0-4-4-4-4-0-0-0-0---4-4-4-4-0-0-0-0--]
A]----------------------------------------------------]
E]----------------------------------------------------]

just before chourse
part A
E]------------------]
B]------------------]
G]--4-4-4-4-4-4-4-4-]
D]-4-4-4-4-0-0-0-0--]x5
A]------------------]
E]------------------]
hater i have your dimonds and stil so still
Chourse

E]----------------------------------]
B]----------------------------------]
G]--4-4-4-4-4-4-4-4-4-4-4-4-4-4-4-4-]
D]-4-4-4-4-0-0-0-0-2-2-0-0----------]
A]-------------------------2-2-2-2--]
E]----------------------------------]
oh come child in cross bone style
of come child come and recuse me
'cause you have seen some unbeliveble thigs
 and then there is a solo of some kind and then part A 2 times

by Sydney graham

            
            
Suggest correction
Creating personal tab
Creating personal tab
You can edit any tab online and save it as your Personal.

You can edit, replace or remove any tab part or add personal notes – all changes will be seen only by you.

Personal tabs can be accessed anytime from any device, even offline.
Learn more »
comments
print report bad tab
2 comments total.
0 reply
Gabriot 10 Jan 31, 2007 09:23 PM

This is not right, the song is not just 2 notes, and those are the wrong notes anyway. I might post the right tab, because this site doesn't have a remotely right one.

+1 reply
blacksides 20 Feb 02, 2008 07:13 AM

this is mostly right, it's not perfect but it is the basis of the song. just add in some fills and other notes or something. also this is up a half step from the actual song, so either tune your guitar down a half step or play:
e]----------------]
B]---------------4]
G]-3-3-3-3-3-3-3--]
D]3-3-3-3---------]
A]--------4-4-4-4-]
E]----------------]

and so on

guest
Wanna post a correction for this tab? Suggest correction