Oops, an error
Loading. Please wait.

Naked If I Want To tab

2,020 views 1 this week
no commentswrite comment
1 2 3 4 5
2 more votes to show rating
add to favorites
×
Save as Personal and add changes to this tab that will be seen only by you. Learn more ›
×
You can save this tab as Personal to edit and correct it or add notes. All changes will be seen only by you. Learn more »
launch autoscroll
font size
0
reset
how to read this tab
guitar tuner
edit
Autoscroll
slow
fast
+/-
esc
set tempo
stop
Author
Difficulty
-------------------------------------------------------------------------------
                             Naked If I Want To by Cat Power
-------------------------------------------------------------------------------

This is a cover of a Moby Grape song, and it's easier to play than it might sound. I've
tabbed it as mostly barre chords, with the exception of the open E and open A. For the
intro (and outro), it's easiest and most sensible to play with your fingers in the E 
formation so that you can just start up the verse immediately after.

Tabbed by: Scott H.


Tuning: Standard


Intro:

e|----------0---------------0------------|
B|----0--------0-------0-----------------|
G|-1-----1-------1--------1--------------|
D|-2----------------0--------------------|
A|-2-------------------------------------|
E|---------------------------------------|



Verse:

e|---------------------------------------------------|
B|--------------------------------2222---------------|
G|-1111---------------------------2222--1111---------|
D|-2222--9999--11-11-11-11--6666--2222--2222---------|
A|-2222--9999--11-11-11-11--6666--------2222---------|
E|-------7777---9--9--9--9--4444---------------------|


    Would you let me walk down your street
    Naked if I wanted to?

    And can I fly fireworks
    On the fourth of every single July?

    And can I buy an amplifier
    On time, my sweet time?



Chorus:

e|-------7777------------------------|
B|-------7777--2222------------------|
G|-1111--8888--2222--1111------------|
D|-2222--9999--2222--2222------------|
A|-2222--9999--------2222------------|
E|-------7777------------------------|


    And I got no money
    I would pay this time
    And I got no money
    I will pay you before I die


Verse
    And would you let me walk down your streets
    Naked if we all wanted to?

    And can I fly fireworks
    On the fourth of every single July?

    And can I buy an aeroplane
    Way up high in the old blue sky?


Chorus
    And I got no mercy
    I would pay this time
    And I got no mercy
    I will pay you before I die



Outro:

e|--------------0-------------------------|
B|--0------0--------0------0--------------|
G|----1-------1-------1------1------------|
D|------0---------------0------0----------|
A|----------------------------------------|
E|----------------------------------------|

            
            
Suggest correction
Creating personal tab
Creating personal tab
You can edit any tab online and save it as your Personal.

You can edit, replace or remove any tab part or add personal notes – all changes will be seen only by you.

Personal tabs can be accessed anytime from any device, even offline.
Learn more »
Give kudos to tab author, rate the tab!
1 2 3 4 5
comments
print report bad tab
guest
You may want to rate the tab now too:
select rating
Wanna post a correction for this tab? Suggest correction