Oops, an error
Loading. Please wait.

Here Comes My Baby bass

499 views 18 this week
no commentswrite comment
1 2 3 4 5
x 5
add to favorites
×
Save as Personal and add changes to this tab that will be seen only by you. Learn more ›
×
You can save this tab as Personal to edit and correct it or add notes. All changes will be seen only by you. Learn more »
launch autoscroll
font size
0
reset
guitar tuner
edit
Autoscroll
slow
fast
+/-
esc
set tempo
stop
Author
Difficulty
--------------------------------------------------------------------------
                                          Artist - Cat Stevens
                                         **********************
                                        Song - Here Comes My Baby    
                                       ***************************
                                       Album - Matthew & Son (1967) 
                                      ******************************
                                          Tabbed By - Ayreon77
                                         **********************
--------------------------------------------------------------------------
Tuning = Standard             



INTRO
******
G|----------------|----------------|
D|-5------------4-|-5------------4-|
A|----5--3--3-5---|----5--3--3-5---|
E|----------------|----------------|


----------------------
00:06
VERSE 1
********
In the mid-night moon light I,ll  Be walking a long, and lonely mile
G|---------|-------|---------|-------|---------|-------|----------------|
D|-5-------|---5-5-|---------|-------|---------|-----4-|-5------------4-|
A|----5--3-|-5-----|-5-----5-|-5---5-|-3--3--5-|-3-5---|----5--3--3-5---|
E|---------|-------|----5----|---5---|---------|-------|----------------|

And ever - y time I do        I keep seeing this picture of you                              
G|---------|-------|---------|-------|---------|-------|
D|-5-------|---5-5-|---------|-------|---------|-----4-|
A|----5--3-|-5-----|-5-----5-|-5---5-|-3--3--5-|-3-5---|
E|---------|-------|----5----|---5---|---------|-------|


----------------------
00:25
CHORUS
*******
Here comes my ba - by here she comes now    And it comes as no surprise to me, with another guy,  
G|-------------------|-------------------|-------------------|-------------------|-----------------|
D|-5-5-------------4-|-5-5-------------4-|-5-5-------------4-|-5-5-------------4-|---------------4-|
A|-----5-5--3-3--5---|-----5-5--3-3--5---|-----5-5--3-3--5---|-----5-5--3-3--5---|-3-3-3-3-5-5-7---|
E|-------------------|-------------------|-------------------|-------------------|-----------------|

Here comes my ba - by here she comes now..........            Never could be mine, no matter how I try
G|-------------------|-------------------|-------------------|-----------------|-------------------|
D|-5-5-------------4-|-5-5-------------4-|-5-5-------------4-|---------------4-|-5-5-------------4-|
A|-----5-5--3-3--5---|-----5-5--3-3--5---|-----5-5--3-3--5---|-3-3-3-3-5-5-7---|-----5-5--3-3--5---|
E|-------------------|-------------------|-------------------|-----------------|-------------------|


----------------------
00:52
BREAK
******
G|----------------|----------------|
D|-5------------4-|-5------------4-|
A|----5--3--3-5---|----5--3--3-5---|
E|----------------|----------------|


----------------------
00:58
VERSE 2
********
You nev - er walk a - lone     And you're forever talking on the phone
G|---------|-------|---------|-------|---------|-------|----------------|
D|-5-------|---5-5-|---------|-------|---------|-----4-|-5------------4-|
A|----5--3-|-5-----|-5-----5-|-5---5-|-3--3--5-|-3-5---|----5--3--3-5---|
E|---------|-------|----5----|---5---|---------|-------|----------------|

I've tried to call you names    but every time it comes out the same
G|---------|-------|---------|-------|---------|-------|
D|-5-------|---5-5-|---------|-------|---------|-----4-|
A|----5--3-|-5-----|-5-----5-|-5---5-|-3--3--5-|-3-5---|
E|---------|-------|----5----|---5---|---------|-------|


----------------------
01:17
CHORUS
*******
Here comes my ba - by here she comes now    And it comes as no surprise to me, with another guy,  
G|-------------------|-------------------|-------------------|-------------------|-----------------|
D|-5-5-------------4-|-5-5-------------4-|-5-5-------------4-|-5-5-------------4-|---------------4-|
A|-----5-5--3-3--5---|-----5-5--3-3--5---|-----5-5--3-3--5---|-----5-5--3-3--5---|-3-3-3-3-5-5-7---|
E|-------------------|-------------------|-------------------|-------------------|-----------------|

Here comes my ba - by here she comes now..........            Never could be mine, no matter how I try
G|-------------------|-------------------|-------------------|-----------------|-------------------|
D|-5-5-------------4-|-5-5-------------4-|-5-5-------------4-|---------------4-|-5-5-------------4-|
A|-----5-5--3-3--5---|-----5-5--3-3--5---|-----5-5--3-3--5---|-3-3-3-3-5-5-7---|-----5-5--3-3--5---|
E|-------------------|-------------------|-------------------|-----------------|-------------------|


----------------------
01:44
BREAK
******
G|----------------|----------------|
D|-5------------4-|-5------------4-|
A|----5--3--3-5---|----5--3--3-5---|
E|----------------|----------------|


----------------------
01:50
VERSE 3
********
I'm still waiting for your heart  Cause I'm sure that... some day it's gonna start
G|---------|-------|---------|-------|---------|-------|----------------|
D|-5-------|---5-5-|---------|-------|---------|-----4-|-5------------4-|
A|----5--3-|-5-----|-5-----5-|-5---5-|-3--3--5-|-3-5---|----5--3--3-5---|
E|---------|-------|----5----|---5---|---------|-------|----------------|

You'll be mine to hold each day  But till then, this is all that I can say
G|---------|-------|---------|-------|---------|-------|
D|-5-------|---5-5-|---------|-------|---------|-----4-|
A|----5--3-|-5-----|-5-----5-|-5---5-|-3--3--5-|-3-5---|
E|---------|-------|----5----|---5---|---------|-------|


----------------------
02:09
CHORUS
*******
Here comes my ba - by here she comes now    And it comes as no surprise to me, with another guy,  
G|-------------------|-------------------|-------------------|-------------------|-----------------|
D|-5-5-------------4-|-5-5-------------4-|-5-5-------------4-|-5-5-------------4-|---------------4-|
A|-----5-5--3-3--5---|-----5-5--3-3--5---|-----5-5--3-3--5---|-----5-5--3-3--5---|-3-3-3-3-5-5-7---|
E|-------------------|-------------------|-------------------|-------------------|-----------------|

Here comes my ba - by here she comes now..........            Never could be mine, no matter how I try
G|-------------------|-------------------|-------------------|-----------------|-------------------|
D|-5-5-------------4-|-5-5-------------4-|-5-5-------------4-|---------------4-|-5-5-------------4-|
A|-----5-5--3-3--5---|-----5-5--3-3--5---|-----5-5--3-3--5---|-3-3-3-3-5-5-7---|-----5-5--3-3--5---|
E|-------------------|-------------------|-------------------|-----------------|-------------------|


----------------------
02:36
BREAK
******
G|----------------|----------------|
D|-5------------4-|-5------------4-|
A|----5--3--3-5---|----5--3--3-5---|
E|----------------|----------------|


----------------------
02:41
CHORUS                 Fade Out...................................................................
*******
Here comes my ba - by here she comes now    And it comes as no surprise to me, with another guy,  
G|-------------------|-------------------|-------------------|-----------------|
D|-5-5-------------4-|-5-5-------------4-|-5-5-------------4-|---------------4-|
A|-----5-5--3-3--5---|-----5-5--3-3--5---|-----5-5--3-3--5---|-3-3-3-3-5-5-7---|
E|-------------------|-------------------|-------------------|-----------------|



ENJOY...........

            
            
Suggest correction
Creating personal tab
Creating personal tab
You can edit any tab online and save it as your Personal.

You can edit, replace or remove any tab part or add personal notes – all changes will be seen only by you.

Personal tabs can be accessed anytime from any device, even offline.
Learn more »
comments
print report bad tab
guest
You may want to rate the tab now too:
select rating
Wanna post a correction for this tab? Suggest correction