Oops, an error
Loading. Please wait.

Lady Darbanville tab

version 3
version 3

Whole song

Interactive

31,810 views 192 this week
1 commentread comment
1 2 3 4 5
x 14
add to favorites
×
Save as Personal and add changes to this tab that will be seen only by you. Learn more ›
×
You can save this tab as Personal to edit and correct it or add notes. All changes will be seen only by you. Learn more »
launch autoscroll
font size
0
reset
how to read this tab
guitar tuner
backing track
0:00
0:00
edit
Autoscroll
slow
fast
+/-
esc
set tempo
stop
Author
Difficulty
intermediate
Lady D'Arbanville - Cat Stevens
Standar tunning


D7  : x57575

D7* : xx5453


Riff A:

e|---7-7--5--3--5--|
B|-----------------|
G|---7-7--5--4--5--|
D|-----------------|
A|-----------------|
E|-----------------|


Riff B:

e|---5-5--7--5--3--|
B|-----------------|
G|---7-7--7--5--4--|
D|-----------------|
A|-----------------|
E|-----------------|


_________________________________________________________________
_________________________________________________________________
_________________________________________________________________

e|-------------------------------12----|
B|--------0---------0------------12----|
G|-------------------------------12----|
D|------9---------9--------------------|   x4
A|---7---------7---------7-------------|
E|--------------------------0----------|


My Lady D'Arbanville  (Riff A)              
D7  (Finger picked)
Why do you sleep so still? (Riff B)
D7* (Finger picked)
I'll wake you tomorrow  (Riff A)
D7  (Finger picked)  Bm
And you will be my fill,
                     Em
yes you will be my fill.



(Percusion here)   
                     Em D Em  
My Lady D'Arbanville 
D                        D Em D
Why does it grieve me so        
Em                         Em D Em
Your heart seems so silent  
D                     Bm
Why do you breathe so low, 
                       Em
why do you breathe so low


(Percusion again)
                      Em D Em
My Lady D'Arbanville              
D                          D Em D
Why do you sleep so still?
Em                      Em D Em
I'll wake you tomorrow
D                    Bm
And you will be my fill,

yes you will be my fill.


e|-----------------------0-0--|
B|-----------------------0-0--|
G|----------0------------0-0--|
D|------0h2--h2-----0h2--2-2--|  x4
A|--0h2---------0h2------2-2--|
E|----------------------------|


(Riff B)

My Lady D'Arbanville  (Riff A)
D7  (Finger picked)
You look so cold tonight  (Riff B) 
D7* (Finger picked)
Your lips feel like winter  (Riff A)
D7  (Finger picked)        Bm
Your skin has turned to white,
                           Em
your skin has turned to white



(Percusion again)
                      Em D Em
My Lady D'Arbanville              
D                          D Em D
Why do you sleep so still?
Em                      Em D Em
I'll wake you tomorrow
D                    Bm
And you will be my fill,
                     Em
yes you will be my fill.



(Another whole verse singing la la la la lala)


e|-----------------------0-0--|
B|-----------------------0-0--|
G|----------0------------0-0--|
D|------0h2--h2-----0h2--2-2--|  x4
A|--0h2---------0h2------2-2--|
E|----------------------------|


   
                     Em D Em  
My Lady D'Arbanville 
D                        D Em D
Why does it grieve me so        
Em                         Em D Em
Your heart seems so silent  
D                     Bm
Why do you breathe so low, 
                       Em
why do you breathe so low


                               ______________
(Percusion again)                            |
                     Em D Em                 |
I loved you my lady                          |
D                            D Em D          |
Though in your grave you lie                 |
Em                      Em D Em              |     X2
I'll always be with you                      |
D                     Bm                     |
This rose will never die,                    |
                      Em (1st time only)     |
this rose will never die       ______________|



e|-----------------------0-0--|
B|-----------------------0-0--|
G|----------0------------0-0--|
D|------0h2--h2-----0h2--2-2--|  x4
A|--0h2---------0h2------2-2--|
E|----------------------------|

            
            
Suggest correction
Creating personal tab
Creating personal tab
You can edit any tab online and save it as your Personal.

You can edit, replace or remove any tab part or add personal notes – all changes will be seen only by you.

Personal tabs can be accessed anytime from any device, even offline.
Learn more »
comments
print report bad tab
1 comment total.
+3 reply
dario.fagotto 10 Feb 09, 2016 09:34 AM

Listening to the song I suppose this is the correct version:

e|---------------------------0--|
B|---------------------------0--|
G|----------0----------------0--|
D|------0h2--h2-0h2-----0h2--2--| x4
A|--0h2-------------0h2------2--|
E|------------------------------|

guest
You may want to rate the tab now too:
select rating
Wanna post a correction for this tab? Suggest correction