Oops, an error
Loading. Please wait.
We have Chord Pro version of Morning Has Broken.
It's the closest thing you can get to the original song and it has interactive parts. Check out the tab »
×
5,255 views 12 this week
no commentswrite comment
1 2 3 4 5
1 last vote to show rating
add to favorites
×
Save as Personal and add changes to this tab that will be seen only by you. Learn more ›
×
You can save this tab as Personal to edit and correct it or add notes. All changes will be seen only by you. Learn more »
launch autoscroll
font size
0
reset
guitar tuner
edit
Autoscroll
slow
fast
+/-
esc
set tempo
stop
1. (Morning has broken, Like the First Morning)
2. (Sweet the rain's new fall, Sunlit from Heaven)
3. (Mine is the sunlight! Mine is the morning!)


G|---------------------------------------------------------------------------|
D|-----------2-3-------------0-----------------------------------------------|
A|-------2----------------------3--2--3--2-----------------------------------|
E|-0-3-----------------------------------------------------------------------|

1. (Blackbird has spoken, Like the First Bird)
2. (Like the first dew fall, On the first grass)
3. (Born of the one light, Eden saw plenty)


G|--------------------------------------------------------------------------|
D|--------------------------------------------------------------------------|
A|-----------2----3-----------2---------------------------------------------|
E|-0-1---3------------------------3--0--1-----------------------------------|


1. (Praise for the singing! Praise for the morning!)
2. (Praise for the sweet-ness, Of the wet garden!)
3. (Praise with elation, Praise every morning!)


G|--------------------------------------------------------------------------|
D|----------2---------------------------------------------------------------|
A|-2-----2----3----------2--------------------------------------------------|
E|--------------------------------------------------------------------------|

            
            
Suggest correction
Creating personal tab
Creating personal tab
You can edit any tab online and save it as your Personal.

You can edit, replace or remove any tab part or add personal notes – all changes will be seen only by you.

Personal tabs can be accessed anytime from any device, even offline.
Learn more »
Give kudos to tab author, rate the tab!
1 2 3 4 5
comments
print report bad tab
guest
You may want to rate the tab now too:
select rating
Wanna post a correction for this tab? Suggest correction