Oops, an error
Loading. Please wait.

My Lady Darbanville bass

496 views 9 this week
no commentswrite comment
1 2 3 4 5
3 more votes to show rating
add to favorites
×
Save as Personal and add changes to this tab that will be seen only by you. Learn more ›
×
You can save this tab as Personal to edit and correct it or add notes. All changes will be seen only by you. Learn more »
launch autoscroll
font size
0
reset
guitar tuner
edit
Autoscroll
slow
fast
+/-
esc
set tempo
stop
Author
My Lady D’Arbanville 
Single release by Cat Stevens in 1970. Reached #8 UK charts.
Bass performance John Ryan. Tab by bass50611. Welcome to my tab
Not 100% as original although I’ve tried to tab the syncopated 
Bass lines. Hope you like my interpretation. 

Symbol ‘.’ Are Pause Dots

Intro: (Guitar Only – no Bass)

Verse 1:
  My Lady D’Arbanville...Why do you sleep so still?...I’ll wake you
G|-----------------------------------------------------------------|
D|-----------------------NO BASS-----------------------------------|
A|-----------------------------------------------------------------|
E|-----------------------------------------------------------------|

  Tomorrow...And you will be my fill...yes you will be my fill (Break)
G|--------------------------------------------------------------|
D|--------------------------------------------------------------|
A|--------------------------------------------------------------|
E|----------------------------------------------------------0---|

Verse 2:
  My Lady D’Arbanville...
G|--------------------------------------------------------------|
D|----------------------------4-7-------4-7-------4-7-------4-7-|
A|------------------------5---------5---------5---------5-------|
E|--------------------------------------------------------------|

G|---------------------------------------------------------------
D|--------9----------9----------9----------9-------4-7-------4-7-
A|-7---10-----7---10-----7---10-----7---10-----5---------5-------
E|---------------------------------------------------------------

G|-----------------------------|
D|-----------------------------|
A|--------9----------9---7---7-|
E|-7---10-----7---10-----------|

Chorus:
  My Lady D’Arbanville...
G|--------------------------------------------------------------|
D|----------------------------4-7-------4-7-------4-7-------4-7-|
A|------------------------5---------5---------5---------5-------|
E|--------------------------------------------------------------|

                             ‘.’
G|------------------------------------------------------------------|
D|--------9----------9---------------------4-7-------4-7------------|
A|-7---10-----7---10-----7---10----8-7-5---------5----------------9-|
E|---------------------------------------------------------7---10---|

              (Break)
G|--------------|
D|--------------|
A|--------9---7-|
E|-7---10-------|

Interlude: (Guitar Only – no Bass)

Verse 3:
  My Lady D’Arbanville...You look so cold tonight...Your lips feel like
G|---------------------------------------------------------------------|
D|---------------------------NO BASS-----------------------------------|
A|---------------------------------------------------------------------|
E|---------------------------------------------------------------------|

                                                                    (Break)
  Winter...Your skin has turned to white...Your skin has turned to white
G|---------------------------------------------------------------------|
D|---------------------------------------------------------------------|
A|---------------------------------------------------------------------|
E|-----------------------------------------------------------------0---|

Verse 4:
  My Lady D’Arbanville...
G|--------------------------------------------------------------|
D|----------------------------4-7-------4-7-------4-7-------4-7-|
A|------------------------5---------5---------5---------5-------|
E|--------------------------------------------------------------|

G|---------------------------------------------------------------
D|--------9----------9----------9----------9-------4-7-------4-7-
A|-7---10-----7---10-----7---10-----7---10-----5---------5-------
E|---------------------------------------------------------------

G|-----------------------------|
D|-----------------------------|
A|--------9----------9---7---7-|
E|-7---10-----7---10-----------|

Bridge:
  La La La, La La La...
G|--------------------------------------------------------------|
D|----------------------------4-7-------4-7-------4-7-------4-7-|
A|------------------------5---------5---------5---------5-------|
E|--------------------------------------------------------------|

                             ‘.’
G|------------------------------------------------------------------|
D|--------9----------9---------------------4-7-------4-7------------|
A|-7---10-----7---10-----7---10----8-7-5---------5----------------9-|
E|---------------------------------------------------------7---10---|

              (Break)
G|--------------|
D|--------------|
A|--------9---7-|
E|-7---10-------|

Verse 5:
  My Lady D’Arbanville...
G|--------------------------------------------------------------|
D|----------------------------4-7-------4-7-------4-7-------4-7-|
A|------------------------5---------5---------5---------5-------|
E|--------------------------------------------------------------|

G|---------------------------------------------------------------|
D|--------9----------9----------9----------9-------4-7-------4-7-|
A|-7---10-----7---10-----7---10-----7---10-----5---------5-------|
E|---------------------------------------------------------------|

G|-----------------------------|
D|-----------------------------|
A|--------9----------9---7---7-|
E|-7---10-----7---10-----------|

Chorus:
  I Love You My Lady...
G|--------------------------------------------------------------|
D|----------------------------4-7-------4-7-------4-7-------4-7-|
A|------------------------5---------5---------5---------5-------|
E|--------------------------------------------------------------|

                             ‘.’
G|------------------------------------------------------------------|
D|--------9----------9---------------------4-7-------4-7------------|
A|-7---10-----7---10-----7---10----8-7-5---------5----------------9-|
E|---------------------------------------------------------7---10---|

              (Break)
G|--------------|
D|--------------|
A|--------9---7-|
E|-7---10-------|

Chorus:
  I Love You My Lady...
G|--------------------------------------------------------------|
D|----------------------------4-7-------4-7-------4-7-------4-7-|
A|------------------------5---------5---------5---------5-------|
E|--------------------------------------------------------------|

                             ‘.’
G|------------------------------------------------------------------|
D|--------9----------9---------------------4-7-------4-7------------|
A|-7---10-----7---10-----7---10----8-7-5---------5----------------9-|
E|---------------------------------------------------------7---10---|

              (Break)
G|--------------|
D|--------------|
A|--------9---7-|
E|-7---10-------|

Outro:                    (End)
G|---------------------------|
D|---GUITAR BIT--------------|
A|---------------------------|
E|-------------------------0-|

Symbol ‘.’ Are Pause Dots

            
            
Suggest correction
Creating personal tab
Creating personal tab
You can edit any tab online and save it as your Personal.

You can edit, replace or remove any tab part or add personal notes – all changes will be seen only by you.

Personal tabs can be accessed anytime from any device, even offline.
Learn more »
Give kudos to tab author, rate the tab!
1 2 3 4 5
comments
print report bad tab
guest
You may want to rate the tab now too:
select rating
Wanna post a correction for this tab? Suggest correction