Oops, an error
Loading. Please wait.

Enciendeme tab

69 views 1 this week
no commentswrite comment
1 2 3 4 5
3 more votes to show rating
add to favorites
×
Save as Personal and add changes to this tab that will be seen only by you. Learn more ›
×
You can save this tab as Personal to edit and correct it or add notes. All changes will be seen only by you. Learn more »
launch autoscroll
font size
0
reset
how to read this tab
guitar tuner
edit
Autoscroll
slow
fast
+/-
esc
set tempo
stop
HOLA ESPERO QUE LE SALGA Y, SOBRE COMENTARIO ME ESCRIBEN

le mando el solo de guitarra elctrica
y despues la tablatura

E----------------9----/-----------------10--12---
B-9-8-9-8-9-8-9----6--/--9-8-9-8-9-8-9-----------
G---------------------/--------------------------
D---------------------/--------------------------
A---------------------/--------------------------
E---------------------/--------------------------

       Y AHORA LA TABLATURA

 Ven espiritu santo...
E----------------/-------------/----------------
B-9-----7-9-7-7--/------7------/----------------
G---9-9----------/--8-9---9-9--/--9-9-8--6-6----
D----------------/-------------/----------------
A----------------/-------------/----------------
E----------------/-------------/----------------

 Has arder el fuego en mi interior... es lo mismo que el intro


 Enciendeme, santificame hoy quiero...
E-------------------------------/----------------/----7-9-7-7---7--
B-9-10-12-12--9-10-10-12-12-----/--9--7-7---7----/--9---------9----
G----------------------------9--/---------9---9--/-----------------
D-------------------------------/----------------/-----------------
A-------------------------------/----------------/-----------------
E-------------------------------/----------------/-----------------

    SE TOCA LO MISMO PERO LO UNICO ES QUE CAMBIA EL FINAL

 Purificame otra vez, purifucame otra vez
E------------------------------------------------
B---7-9-7-7---7-----7-9-7-7----------------------
G-9---------9-----9---------9-9------------------
D------------------------------------------------
A------------------------------------------------
E------------------------------------------------

BUENO DEVUELTA YO EL CAPO CON ESTO, LE QUIERO MANDAR UN
SALUDO MUY ESPECIAL A LA COMICION JUVENIL QUE SIEMPRE ME
APOYA EN TODO DE LA IGLESIA NUEVA VIDA Y A TODA LA
MONADA JUVEVIL Y AGUANTE EL VERDE

            
            
Suggest correction
Creating personal tab
Creating personal tab
You can edit any tab online and save it as your Personal.

You can edit, replace or remove any tab part or add personal notes – all changes will be seen only by you.

Personal tabs can be accessed anytime from any device, even offline.
Learn more »
Give kudos to tab author, rate the tab!
1 2 3 4 5
comments
print report bad tab
guest
Wanna post a correction for this tab? Suggest correction