Oops, an error
Loading. Please wait.

7 tab

version 1
version 1

Whole song

  • This is Bondy's lead guitar, with no capo, rather than Van's rhythm.
41,797 views 219 this week
16 commentsread comments
1 2 3 4 5
x 53
add to favorites
×
Save as Personal and add changes to this tab that will be seen only by you. Learn more ›
×
You can save this tab as Personal to edit and correct it or add notes. All changes will be seen only by you. Learn more »
launch autoscroll
font size
0
reset
how to read this tab
guitar tuner
edit
Autoscroll
slow
fast
+/-
esc
set tempo
stop
7 Acoustic for Skype Live Studio

Van McCann Part

Capo 3

   G*  G**  Em  C/G  D* D  G  G***
e|--0---0----0---0---0--0--3---3-----------|
B|--3---0----0---1---3--3--0---3-----------|
G|--0---0----0---0---0--2--0---4-----------|
D|--5---5----2---2---4--0--0---5-----------|
A|--5---5----2---3---5--0--2---5-----------|
E|--x---x----0---3---5--x--3---3-----------|


Intro

G* G** a few times

Verse 1

G*
And I recall when I was smokin’
I wanna lose a couple days

Em
You probably never struck a cold feelin’
(But I never want to)

G*
I promised again that I’d call her
Forget the time cos she’s seven hours behind

Em
It’s probably good I didn’t call though (I always want to)

Chorus

C/G             Em  
   And I’d beg you
       D*                     
But you know I’m never home
C/G          Em
   And I love you
                  D*
But I need another year alone
C/G            Em         D* 
    I’ve try to ignore it every time you've phoned
C/G                      Em       D*
   But I never come close

Verse 2

G***
I don’t think through things
                 Em
I never get time

Cos I don’t think things through

G*
And I recall when we were smokin’
I wanna disappear for days
Em
Probably never struggled sleepin’
(But I never want to)
G*
Again I promised that I'll call her 
Forget the time cos she’s seven hours behind
Em
It’s probably good I didn’t call though (but I always want to)


Chorus 


C/G             Em  
   And I’d beg you
       D*                     
But you know I’m never home
C/G          Em
   And I love you
                  D*
But I need another year alone
C/G            Em         D* 
    I’ve try to ignore it every time you've phoned
C/G                      Em       D
   But I never come close

G
I don’t think through things
I never get time

Em
Cos I don’t think things through 

G
I don't think through things
I never get time

Em 
Cos I don't think things through

SOLO - G Em x2


C/G             Em  
   And I’d beg you
       D                   
But you know I’m never home
C/G          Em
   And I love you
                  D
But I need another year alone
C/G            Em         D
    I’ve try to ignore it every time you've phoned
C/G                      Em       D
   But I never come close

C/G           G
  And I’d beg you
        D
But you know I’m never home
C/G          G
  And I love you
                   D
But I need another minute on my own
C/G          G          D                         
  I’ve try to ignore it every time you've phone me
C/G                             G      D
   But I never come close these days


C/G G D til end



Johnny Bond Part

Capo 1

Verse
e|---------------------------------------------------------------------------|
B|---------------------------9-----------------------------------10----14----|
G|-----9-----9-----9-----9------11--------9-----9-----9----11----------------|
D|--11----11----11----11---11----------11----11----11---11----11----11-------|
A|---------------------------------------------------------------------------|
E|---------------------------------------------------------------------------|  
                                                                                     
e|----------------------------|      
B|--14--12--------------------|       
G|--14--11--14--11--9////-----|      
D|----------14--14--9////-----|    
A|----------------------------|    
E|----------------------------|     

1st Time
e|---9----------------------|              
B|--10--10----10------------|              
G|--11-----11----11-9----9--|              
D|--------------------11----|              
A|--------------------------|              
E|--------------------------|

2nd Time
          
e|---------------------------------------------|
B|--12-12-12-12-12-12-12-----------------------|
G|---------9--9--9--9--9-few times more--------|
D|------------------9--9-----------------------|
A|---------------------------------------------|
E|---------------------------------------------|

Chorus (slightly muted)

e|--x-x-------x------x-----(0)----|
B|--x-x-------3------2-----(0)----|
G|--x-x-then--2--x8--2--x4--1-x4--|
D|--x-x-------0------4------2-----| x3
A|--x-x------(0)-----4------2-----|
E|--x-x-------x------x------0-----|

e|--x-----9----7------------------|
B|--x----10----9------------------|
G|--6-----9----9------------------|
D|--7-x8-11-x4-9-x4---------------|
A|--5-----9----7------------------|
E|--x-----x----x------------------|

Dont play anything for 'i dont think through things' part

Repeat verse

Repeat chorus then

e|---x---(9)----|
B|---5---10-----|
G|---6---11-----|
D|---7---11-----|
A|---7----9-----|
E|---x----x-----|

SOLO (not 100% sure so dont snip pls)

e|-----0-0-0-0-----0-0-0-0-----0-0-0-0-----0-0-------2p0---------------2p0------------|
B|-----0-0-0-0-----3-3-3-3s2---2-2-2-0-----3-3-555s2-----2p0------5s2-------2p0-------|
G|-2-2-2-2---2s4-4-4-4-4-4s2-2-2-2-2-2s4-4-4-4---------------2------------------2-----|
D|-------------------------------------------------------------4------------------4---|
A|------------------------------------------------------------------------------------|
E|------------------------------------------------------------------------------------|

e|-----0---0---0-0-0-0-0-----0--0--0--0-----0--0--0--0-----------------------|
B|---5-5s7-7s9-9-9-9-9-9s10-10-10-10-10s12-12-12-12-12-----------------------|
G|---------------------------------------------------------------------------|
D|---------------------------------------------------------------------------|
A|---------------------------------------------------------------------------|
E|---------------------------------------------------------------------------|

                       pm this 
e|--------2p0-----------2-2-0-0-5-5-0-0-7-7-0-0-9-9--------------------------|
B|--555s2-----2p0-------5-5-0-0-5-5-0-0-5-5-0-0-5-5--------------------------|
G|----------------2----------------------------------------------------------|
D|------------------4--------------------------------------------------------|
A|---------------------------------------------------------------------------|
E|---------------------------------------------------------------------------|

now he starts doing something and again im not 100% so no snip

e|----9-----7------------------------------9-----9---------------------------|
B|------7-----7---10------7---------10----10----10--9-9-9-10p9---------------|
G|--7-----7-----7-----7-------9-----11-11-11-11-11--9-9-9------11p9----------|
D|---------------------------------------------------------------------------|
A|---------------------------------------------------------------------------|
E|---------------------------------------------------------------------------|
                                    ^^^^^^^^^^^^^^^^^^^^^^^^^^^^^^^^
                                    sometimes instead of this he plays
e|---------------------------------------------------------------------------|
B|-10-10---12----10-9----10-9------------------------------------------------|
G|-11---11----11------9-------9----------------------------------------------|
D|---------------------------------------------------------------------------|
A|---------------------------------------------------------------------------|
E|---------------------------------------------------------------------------|

then for the penultimate chorus he seems to play

e|--x----x-x---------x-x-(0)------------------------------------------------|
B|--x----x-x--2--2-5-x-x--0-------------------------------------------------|
G|--6----x-x--2--2-2-x-x--1-------------------------------------------------|
D|--7-x8-x-x--2--2-2-x-x--2--x4---------------------------------------------|
A|--5----x-x---------x-x--2-------------------------------------------------|
E|--x----x-x---------x-x--0-------------------------------------------------|

on the last time he plays the x576xx then 

e|----0-0-0---0-0-0---0-0-0-0-0-0-0------------------------------------------|
B|--0-0-0-0-0-0-0-0-0-0-0-0-0-0-0-0------------------------------------------|
G|--2---2-2-4---4-4-6---6-6-9-9-9-9------------------------------------------|
D|---------------------------------------------------------------------------|
A|---------------------------------------------------------------------------|
E|---------------------------------------------------------------------------|


e|---------------------------------------------------------------------------|
B|------------------------------2--------------------------------------------|
G|--------2--2-2-2h4----2--2----2---4--4-2-----------------------------------|
D|--2h4-4------4------2-------4---2---------2h4-4-2--2-----------------------|
A|--4------------------------------------------------------------------------|
E|---------------------------------------------------------------------------|

and on the very last time

e|-----------------------------------------9---------0----(0)----------------|
B|----------------------------------10-10-10-10--2---2-2---7-----------------|
G|--------2--2-2-2h4----2--2-----///11-11-11-11--2-2-2-----6-----------------|
D|--2h4-4------4------2-------4----------------------------7-----------------|
A|--4------------------------------------------------------------------------|
E|---------------------------------------------------------------------------|

eh brun












            
            
Suggest correction
Creating personal tab
Creating personal tab
You can edit any tab online and save it as your Personal.

You can edit, replace or remove any tab part or add personal notes – all changes will be seen only by you.

Personal tabs can be accessed anytime from any device, even offline.
Learn more »
comments
print report bad tab
16 comments total. Showing first comments.
+6 reply
JoshElliott27 1,312 Apr 02, 2016 02:58 PM

This deserves 6 stars.

+1 reply
LewisChadwick99 72 Apr 05, 2016 06:47 AM

Thanks man, Incredible Tune can't wait for actual release

+2 reply
Iest123 534 Apr 08, 2016 11:31 AM

Awesome job dude!!

guest
You may want to rate the tab now too:
select rating
Wanna post a correction for this tab? Suggest correction