Oops, an error
Loading. Please wait.
We have an official Cocoon tab made by UG professional guitarists. Check out the tab »
×

Cocoon tab

version 1
version 1

Whole song

  • Mine has lead parts for verse and solo tabbed out,... Show more

Interactive

30,109 views 135 this week
4 commentsread comments
1 2 3 4 5
x 9
add to favorites
×
Save as Personal and add changes to this tab that will be seen only by you. Learn more ›
×
You can save this tab as Personal to edit and correct it or add notes. All changes will be seen only by you. Learn more »
launch autoscroll
font size
0
reset
how to read this tab
guitar tuner
edit
Autoscroll
slow
fast
+/-
esc
set tempo
stop
Author
-------------------------------------------------------------------------------
                             Cocoon - Catfish and The Bottlemen
-------------------------------------------------------------------------------
Tabbed by:
E-mail:psmpsmpsm21@gmail.com

I made a good start but can't figure out the guitar solo part so if anyone can help me out feel 
free to e-mail me and
i'll add it in.
Tuning: Standard


[Intro]

e|---------------------------------------------------------------------------|
B|---------------------------------------------------------------------------|
G|----888888888888888888888888888888888888888888888--------------------------|
D|----888888888888888888888888888888888888888888888--------------------------|
A|----666666666666666666666666666666666666666666666--------------------------|
E|---------------------------------------------------------------------------|


[Verse](x2)

e|---------------------------------------------------------------------------|
B|---------------------------------------------------------------------------|
G|------7~------10~------8~-------7~----7~-------------10~------8~-------7~--|
D|----5~------8~------8~-------8~---------5~--------8~-------8~--------8~----|
A|---------------------------------------------------------------------------|
E|---------------------------------------------------------------------------|


[Pre-Chorus](x4)

(Palm Mute)
e|---------------------------------------------------------------------------|
B|---------------------------------------------------------------------------|
G|------------88888-----------101010-----------------------------------------|
D|----55555---88888---88888---101010-----------------------------------------|
A|----55555---66666---88888---88888------------------------------------------|
E|----33333-----------66666--------------------------------------------------|


[Chorus](x2)

e|---------------------------------------------------------------------------|
B|---------------------------------------------------------------------------|
G|---88888888----------------------------------------------------------------|
D|---88888888---88888888---55555555---33333333-------------------------------|
A|---66666666---88888888---55555555---33333333-------------------------------|
E|--------------66666666---33333333---11111111-------------------------------|


[Verse 2] (x2)

e|---------------------------------------------------------------------------|
B|---------------------------------------------------------------------------|
G|---------------------------------------------------------------------------|
D|---------------------------------------------------------------------------|
A|------5~-----8~-----6~-----5~----------------------------------------------|
E|----3~-----6~-----6~-----6~------------------------------------------------|


[Pre-Chorus 2](x4)

(Palm Mute) 
e|---------------------------------------------------------------------------|
B|---------------------------------------------------------------------------|
G|------------88888-----------101010-----------------------------------------|
D|----55555---88888---88888---101010-----------------------------------------|
A|----55555---66666---88888---88888------------------------------------------|
E|----33333-----------66666--------------------------------------------------|


[Chorus 2](x4)

e|---------------------------------------------------------------------------|
B|---------------------------------------------------------------------------|
G|---88888888----------------------------------------------------------------|
D|---88888888---88888888---55555555---33333333-------------------------------|
A|---66666666---88888888---55555555---33333333-------------------------------|
E|--------------66666666---33333333---11111111-------------------------------|


[Interlude](x4) 

Then................................ 4th time
e|---------------------------------------------------|-----------------------------|
B|---------------------------------------------------|-----------------------------|
G|-----888888888888888888888-------------------------|-----------------------------|
D|-----888888888888888888888---55555555555555555555--|---3333333333----------------|
A|-----666666666666666666666---55555555555555555555--|---3333333333----------------|
E|-----------------------------33333333333333333333--|---1111111111----------------|


[Solo Part 1]

e|-----------------------------------------------------------|
B|--11,11,11,13,13b,11---------------------------------------|
G|---------------------12~--,0,12,0,10,8,0,7,0,5,0,3,5,5b,0,3|
D|-----------------------------------------------------------|
A|-----------------------------------------------------------|
E|-----------------------------------------------------------|


[Solo Part 2]

e|------------------------------------------------------15\--|
B|--11,11,11,13,13b,11---------11--------13--------15---15\--|
G|--------------------12~--7/12--12---7/14--13-7/15--15------|
D|-----------------------------------------------------------|
A|-----------------------------------------------------------|
E|-----------------------------------------------------------|(x4)

e|------------------------------------------------------------------------------5--6-------|
B|-------------8--6-------------------------------------------------------------------8----|
G|---88888888------------------7--5----------------------5--3------------------------------|
D|---88888888---------88888888------------------55555555-------------33333333--------------|
A|---66666666---------88888888------------------55555555-------------33333333--------------|
E|--------------------66666666------------------33333333-------------11111111--------------|


[Last Chorus]

e|---------------------------------------------------------------------------|
B|---------------------------------------------------------------------------|
G|---88888888----------------------------------------------------------------|
D|---88888888---88888888---55555555---33333333-------------------------------|
A|---66666666---88888888---55555555---33333333-------------------------------|
E|--------------66666666---33333333---11111111-------------------------------|

Finish On
e|---------------------------------------------------------------------------|
B|---------------------------------------------------------------------------|
G|---88888888888888888888888-------------------------------------------------|
D|---88888888888888888888888-------------------------------------------------|
A|---66666666666666666666666-------------------------------------------------|
E|---------------------------------------------------------------------------|



************************************

| /  Slide up
| \  Slide down
| ~  Vibrato
| b  bend

************************************

            
            
Suggest correction
Creating personal tab
Creating personal tab
You can edit any tab online and save it as your Personal.

You can edit, replace or remove any tab part or add personal notes – all changes will be seen only by you.

Personal tabs can be accessed anytime from any device, even offline.
Learn more »
comments
print report bad tab
4 comments total. Showing first comments.
-1 reply
benplayzgames 10 Dec 30, 2014 04:01 AM

Lack of accuracy. Tab incomplete. It only features part of the Guitars parts, and is not accurate to how the bad play it. I think thetab could be made much better.

0 reply
purplebanana 101 Dec 30, 2014 04:03 AM

Lack of accuracy. Tab incomplete. Clearly wrong. Just not enough detail or time put into this. Incomplete guitar parts, not the full song, as it's missing the solo.

0 reply
MrBlyth 10 Jan 09, 2015 09:37 AM

Solo part 1
e-----------------------------------------------------------
B--11,11,11,13,13b,11---------------------------------------
G---------------------12~--,0,12,0,10,8,0,7,0,5,0,3,5,5b,0,3

Solo part 2
e------------------------------------------------------15\--
B--11,11,11,13,13b,11---------11--------13--------15---15\--
G--------------------12~--7/12--12---7/14--13-7/15--15------

guest
You may want to rate the tab now too:
select rating
Wanna post a correction for this tab? Suggest correction