Oops, an error
Loading. Please wait.
We have an official Cocoon tab made by UG professional guitarists. Check out the tab »
×

Cocoon tab

version 3
version 3

Whole song

  • Mine has lead parts for verse and solo tabbed out,... Show more

Interactive

1,561 views 15 this week
3 commentsread comments
1 2 3 4 5
x 8
add to favorites
×
Save as Personal and add changes to this tab that will be seen only by you. Learn more ›
×
You can save this tab as Personal to edit and correct it or add notes. All changes will be seen only by you. Learn more »
launch autoscroll
font size
0
reset
how to read this tab
guitar tuner
edit
Autoscroll
slow
fast
+/-
esc
set tempo
stop
Author
Difficulty
About this tab version
Mine has lead parts for verse and solo tabbed out, not just chords like previous tabs. Was this info helpful? Yes No
-------------------------------------------------------------------------------
                            Cocoon - Catfish And The Bottlemen 
-------------------------------------------------------------------------------
Tabbed by: Dominic Kara
E-mail: dominic.kara@yahoo.com
Tuning: Standard 

Full lead guitar tab. Rhythm is pretty much non-existent until the backing 
chords behind the solo, which I have tabbed out. Tabbed this by ear.

Intro: X 4.Sounds best with just downstrokes. 
e|----------------------------------|
B|----------------------------------|
G|--8-8-8-8-8-8-8-8-8-8-8-8-8-8-8-8-|
D|--8-8-8-8-8-8-8-8-8-8-8-8-8-8-8-8-|
A|--6-6-6-6-6-6-6-6-6-6-6-6-6-6-6-6-|
E|----------------------------------|

Verse 1: X 4. 
e|----------------------------|
B|----------------------------|
G|-----7-----10-----8-----7---|
D|--5-----8------8-----8------|
A|----------------------------|
E|----------------------------|

Pre-Chorus: X 4. Palm muted.
e|--------------------------------------------|
B|--------------------------------------------|
G|------------8--8--8-------------10--10--10--|
D|--5--5--5---8--8--8---8--8--8---10--10--10--|
A|--5--5--5---6--6--6---8--8--8---8---8---8---|
E|--3--3--3-------------6--6--6---------------|

Chorus: X 2. Let link chord at the end ring.
e|-----------------------------------------------------------------------------------------|
B|-----------------------------------------------------------------------------------------|
G|--8-8-8-8-8-8-8-8-------------------------------------------------LINK INTO VERSE:-- 8---|
D|--8-8-8-8-8-8-8-8---8-8-8-8-8-8-8-8---5-5-5-5-5-5-5-5---3-3-3-3-3-3-3-3--------------6---|
A|--6-6-6-6-6-6-6-6---8-8-8-8-8-8-8-8---5-5-5-5-5-5-5-5---3-3-3-3-3-3-3-3--------------6---|
E|--------------------6-6-6-6-6-6-6-6---3-3-3-3-3-3-3-3---1-1-1-1-1-1-1-1------------------|


Verse 2: X 2. Melodically same as first verse, just octave lower. 
e|----------------------------|
B|----------------------------|
G|----------------------------|
D|----------------------------|
A|-----5-----8-----6-----5----|
E|--3-----6-----6-----6-------|

Pre-Chorus: X 3.
e|----------------------------------------------------|
B|---------------------------------------6------------|
G|--------3--5--7--5--3---------3--5--7-----7--5------|
D|--3--h5----------------3--h5------------------------|
A|----------------------------------------------------|
E|----------------------------------------------------|

Pre-Chorus X 1. Almost same as first three bars, just with a lick at the end.
e|----------------------LICK:--1--h3--1---------------------|
B|---------------------------------------3--1--h3--1--------|
G|--------3--5--7--5--3-------------------------------3--0--|
D|--3--h5---------------------------------------------------|
A|----------------------------------------------------------|
E|----------------------------------------------------------|

Rhythm Pre-Chorus: X 4. Palm muted.
e|--------------------------------------------|
B|--------------------------------------------|
G|------------8--8--8-------------10--10--10--|
D|--5--5--5---8--8--8---8--8--8---10--10--10--|
A|--5--5--5---6--6--6---8--8--8---8---8---8---|
E|--3--3--3-------------6--6--6---------------|

Chorus: X 4 this time. 
e|-------------------------------------------------------------------------|
B|-------------------------------------------------------------------------|
G|--8-8-8-8-8-8-8-8--------------------------------------------------------|
D|--8-8-8-8-8-8-8-8---8-8-8-8-8-8-8-8---5-5-5-5-5-5-5-5---3-3-3-3-3-3-3-3--|
A|--6-6-6-6-6-6-6-6---8-8-8-8-8-8-8-8---5-5-5-5-5-5-5-5---3-3-3-3-3-3-3-3--|
E|--------------------6-6-6-6-6-6-6-6---3-3-3-3-3-3-3-3---1-1-1-1-1-1-1-1--|

Bridge: 
e|---------------------------------------------------------------------------------------------|
B|---------------------------------------------------------------------------------------------|
G|--8-8-8-8-8-8-8-8-------------------8-8-8-8-8-8-8-8------------------------------------------|
D|--8-8-8-8-8-8-8-8--5-5-5-5-5-5-5-5--8-8-8-8-8-8-8-8--5-5-5-5-5-5-5-5--5-5--7-7--8-8--10-10---|
A|--6-6-6-6-6-6-6-6--5-5-5-5-5-5-5-5--6-6-6-6-6-6-6-6--5-5-5-5-5-5-5-5--x-x--x-x--x-x--x--x----|
E|-------------------3-3-3-3-3-3-3-3-------------------3-3-3-3-3-3-3-3--3-3--5-5--6-6--8--8----|

Bridge: 
e|------------------------------------------------------------------------------------------|
B|------------------------------------------------------------------------------------------|
G|--8-8-8-8-8-8-8-8-------------------8-8-8-8-8-8-8-8---------------------------------------|
D|--8-8-8-8-8-8-8-8--5-5-5-5-5-5-5-5--8-8-8-8-8-8-8-8--5-5-5-5-5-5-5-5----3-3-3-3-3-3-3-3---|
A|--6-6-6-6-6-6-6-6--5-5-5-5-5-5-5-5--6-6-6-6-6-6-6-6--5-5-5-5-5-5-5-5----3-3-3-3-3-3-3-3---|
E|-------------------3-3-3-3-3-3-3-3-------------------3-3-3-3-3-3-3-3----1-1-1-1-1-1-1-1---|



Solo:
e|---------------------------------------------------------------------------|
B|--11--11--11--13--13b15--13--11--------------------------------------------|
G|---------------------------------12---0--h12--0-0--h10-0-0--h8-0-0--h7-0-0-|
D|---------------------------------------------------------------------------|
A|---------------------------------------------------------------------------|
E|---------------------------------------------------------------------------|

e|----------------------------------------------|
B|----------------------------------------------|
G|--h5-0-0--h3--p2--0--3--h5--b5(7)--5--3--0----|
D|----------------------------------------------|
A|----------------------------------------------|
E|----------------------------------------------|

e|---------------------------------------------------------------------------|
B|---11--11--11--13--13b15--13--11------------------------11-----------13----|
G|----------------------------------12--LET RING:--12-12------12--/14------14|
D|---------------------------------------------------------------------------|
A|---------------------------------------------------------------------------|
E|---------------------------------------------------------------------------|

e|---------------p15---|
B|-------15------p15---|
G|--/15------15--p15---|
D|---------------------|
A|---------------------|
E|---------------------|

Rhythm for solo: X 2.
e|-------------------------------------------|
B|-------------------------------------------|
G|--88888888------------88888888-------------|
D|--88888888--55555555--88888888--55555555---|
A|--66666666--55555555--66666666--55555555---|
E|------------33333333------------33333333---|

After Solo part: 'Whoah whoah'. X 4. Same chords as chorus, different rhythm.
e|------------------------------------------|
B|------------------------------------------|
G|--8-8-------------------------------------|
D|--8-8--------8-8--------5-5--------3-3----|
A|--6-6--------8-8--------5-5--------3-3----|
E|-------------6-6--------3-3--------1-1----|

Chorus: X 4.
e|----------------------------------------------------------------------|
B|----------------------------------------------------------------------|
G|--8-8-8-8-8-8-8-8-----------------------------------------------------|
D|--8-8-8-8-8-8-8-8--8-8-8-8-8-8-8-8--5-5-5-5-5-5-5-5--3-3-3-3-3-3-3-3--|
A|--6-6-6-6-6-6-6-6--8-8-8-8-8-8-8-8--5-5-5-5-5-5-5-5--3-3-3-3-3-3-3-3--|
E|-------------------6-6-6-6-6-6-6-6--3-3-3-3-3-3-3-3--1-1-1-1-1-1-1-1--|

Outro: Same as intro.
e|----------------------------------|
B|----------------------------------|
G|--8-8-8-8-8-8-8-8-8-8-8-8-8-8-8-8-|
D|--8-8-8-8-8-8-8-8-8-8-8-8-8-8-8-8-|
A|--6-6-6-6-6-6-6-6-6-6-6-6-6-6-6-6-|
E|----------------------------------|

Thank you, hope this was helpful. This was my first tab.
Like, comment and subscribe or whatever.
E-mail for songs requests.

************************************

| /   slide up
| \   slide down
| h   hammer-on
| p   pull-off
| ~   vibrato
| +   harmonic
| x   Mute note
| b   Bend
| pb  Pre-bend
| br  Bend release
| pbr Pre-bend release
| brb Bend release bend

************************************

            
            
Suggest correction
Creating personal tab
Creating personal tab
You can edit any tab online and save it as your Personal.

You can edit, replace or remove any tab part or add personal notes – all changes will be seen only by you.

Personal tabs can be accessed anytime from any device, even offline.
Learn more »
comments
print report bad tab
3 comments total.
-1 reply
lauriesut 10 Feb 18, 2016 07:26 AM

Very very wrong. Opening chords all wrong, it's just C on capo 2

+2 reply
DominicKara 40 Mar 23, 2016 01:36 PM, edited on August 2 2016, 05:52 pm

It's evidently not wrong. The above intro chords are D sharp. Hopefully you're aware that it's C with capo on 3, not 2. Capo on 3 and playing a 'C chord' equates to D sharp as the capo adds 3 semitones to the C.

0 reply
Smiley_Guy76 10 Apr 14, 2017 11:16 AM

love this, it's the only version I've found with the riff in the pre-chorus

guest
You may want to rate the tab now too:
select rating
Wanna post a correction for this tab? Suggest correction