Oops, an error
Loading. Please wait.

Fallout tab

4,855 views 54 this week
2 commentsread comments
1 2 3 4 5
x 4
add to favorites
×
Save as Personal and add changes to this tab that will be seen only by you. Learn more ›
×
You can save this tab as Personal to edit and correct it or add notes. All changes will be seen only by you. Learn more »
launch autoscroll
font size
0
reset
how to read this tab
guitar tuner
edit
Autoscroll
slow
fast
+/-
esc
set tempo
stop
Author
Fallout - Catfish and the Bottlemen

Guitar 1 - Billy Bibby            
Guitar 2 - Ryan McCann (Capo 3)

Live version is played half a step down.

[Intro]

[Guitar 1]

  I told you...
e|--3--------6--------3--|
B|--4--------4--------4--|
G|--5--------5--------5--|
D|--5--------4--------5--|
A|--3--------6--------3--|
E|--x--------4--------x--|


[Verse 1]

[Guitar 1]

  I pissed you off...
e|--3----4----3--------3----4----3--------3----4----3--------3----4--------------8-6-----|
B|--4----4----4--------4----4----4--------4----4----4--------4----4----------8------8-6--|
G|--5----5----3--------5----5----3--------5----5----3--------5----5-----8-10--10---------|
D|---------------------------------------------------------------------8----8---8--------|
A|---------------------------------------------------------------------------------------|
E|---------------------------------------------------------------------------------------|


[Guitar 2]

e|--0----0----0--------0----0----0--------0----0----0--------0----0----0-0-0-0-0-0-0-0-0-0-0-0-0-0-0-0--|
B|--1----1----1--------1----1----1--------1----1----1--------1----1----1-1-1-1-1-1-1-1-1-1-1-1-1-1-1-1--|
G|--2----2----0--------2----2----0--------2----2----0--------2----2----0-0-0-0-0-0-0-0-0-0-0-0-0-0-0-0--|
D|--2----3----2--------2----3----2--------2----3----2--------2----3----2-2-2-2-2-2-2-2-2-2-2-2-2-2-2-2--|
A|--0----3----3--------0----3----3--------0----3----3--------0----3----3-3-3-3-3-3-3-3-3-3-3-3-3-3-3-3--|
E|--x----1----3--------x----1----3--------x----1----3--------x----1----3-3-3-3-3-3-3-3-3-3-3-3-3-3-3-3--|


[Pre-chorus]

[Guitar 1]

  Oh but no--... 
e|-----------------------------------------------------------10------|
B|--------------------------------------------6-8-6-8-8--11----11----|
G|--8--7--5--5-3----------3-5-5br-3--8--7--5---------------12----12--|
D|--------------5-3-5--3-5-------------------------------------------|
A|-------------------------------------------------------------------|
E|-------------------------------------------------------------------|


[Guitar 2]

e|--0-0-0-0-0-0-0-0-0-0-0-0-0-0-0-0-0-0-0-0-0-0-0-0-0-0-0-0-0-0-0-0-0-0-0-0-0-0-0-0-0-0-0-0-0-0-0-0--|
B|--1-1-1-1-1-1-1-1-1-1-1-1-1-1-1-1-1-1-1-1-1-1-1-1-1-1-1-1-1-1-1-1-1-1-1-1-1-1-1-1-1-1-1-1-1-1-1-1--|
G|--2-2-2-2-2-2-2-2-2-2-2-2-2-2-2-2-2-2-2-2-2-2-2-2-2-2-2-2-2-2-2-2-2-2-2-2-2-2-2-2-2-2-2-2-2-2-2-2--|
D|--3-3-3-3-3-3-3-3-3-3-3-3-3-3-3-3-2-2-2-2-2-2-2-2-2-2-2-2-2-2-2-2-3-3-3-3-3-3-3-3-3-3-3-3-3-3-3-3--|
A|--3-3-3-3-3-3-3-3-3-3-3-3-3-3-3-3-0-0-0-0-0-0-0-0-0-0-0-0-0-0-0-0-3-3-3-3-3-3-3-3-3-3-3-3-3-3-3-3--|
E|--1-1-1-1-1-1-1-1-1-1-1-1-1-1-1-1-x-x-x-x-x-x-x-x-x-x-x-x-x-x-x-x-1-1-1-1-1-1-1-1-1-1-1-1-1-1-1-1--|

e|--0-0-0-0-0-0-0-0-0-0-0-0-0-0-0-0--|
B|--1-1-1-1-1-1-1-1-1-1-1-1-1-1-1-1--|
G|--0-0-0-0-0-0-0-0-0-0-0-0-0-0-0-0--|
D|--2-2-2-2-2-2-2-2-2-2-2-2-2-2-2-2--|
A|--3-3-3-3-3-3-3-3-3-3-3-3-3-3-3-3--|
E|--3-3-3-3-3-3-3-3-3-3-3-3-3-3-3-3--|


[Chorus]

[Guitar 1]

But we just...
e|-----------------------------------------------------------------------------------------------------------|
B|-----------------------------------------------------------------------------------------------------------|
G|-5-5-5-5-5-5-5-5-5-5-5-5---------8-8-8-8-8-8-8-8-8-8-8-8---------5-5-5-5-5-5-5-5-5-5-5-5---------8-8-8-8-8-|
D|-5-5-5-5-5-5-5-5-5-5-5-5-8-8-8-8-8-8-8-8-8-8-8-8-8-8-8-8-8-8-8-8-5-5-5-5-5-5-5-5-5-5-5-5-8-8-8-8-8-8-8-8-8-|
A|-3-3-3-3-3-3-3-3-3-3-3-3-8-8-8-8-6-6-6-6-6-6-6-6-6-6-6-6-8-8-8-8-3-3-3-3-3-3-3-3-3-3-3-3-8-8-8-8-6-6-6-6-6-|
E|-------------------------6-6-6-6-------------------------6-6-6-6-------------------------6-6-6-6-----------|

e|-------------------------|
B|-------------------------|
G|--8-8-8-8-8-8-8-8-8-8-8--|
D|--8-8-8-8-8-8-8-8-8-8-8--|
A|--6-6-6-6-6-6-6-6-6-6-6--|
E|-------------------------|


[Guitar 2]

e|--0-0-0-0-0-0-0-0-0-0-0-0-3-3-3-3-0-0-0-0-0-0-0-0-0-0-0-0-3-3-3-3-0-0-0-0-0-0-0-0-0-0-0-0-3-3-3-3-0-0-0-0-|
B|--1-1-1-1-1-1-1-1-1-1-1-1-0-0-0-0-1-1-1-1-1-1-1-1-1-1-1-1-0-0-0-0-1-1-1-1-1-1-1-1-1-1-1-1-0-0-0-0-1-1-1-1-|
G|--2-2-2-2-2-2-2-2-2-2-2-2-0-0-0-0-0-0-0-0-0-0-0-0-0-0-0-0-0-0-0-0-2-2-2-2-2-2-2-2-2-2-2-2-0-0-0-0-0-0-0-0-|
D|--2-2-2-2-2-2-2-2-2-2-2-2-0-0-0-0-2-2-2-2-2-2-2-2-2-2-2-2-0-0-0-0-2-2-2-2-2-2-2-2-2-2-2-2-0-0-0-0-2-2-2-2-|
A|--0-0-0-0-0-0-0-0-0-0-0-0-2-2-2-2-3-3-3-3-3-3-3-3-3-3-3-3-2-2-2-2-0-0-0-0-0-0-0-0-0-0-0-0-2-2-2-2-3-3-3-3-|
E|--x-x-x-x-x-x-x-x-x-x-x-x-3-3-3-3-3-3-3-3-3-3-3-3-3-3-3-3-3-3-3-3-x-x-x-x-x-x-x-x-x-x-x-x-3-3-3-3-3-3-3-3-|

e|--0-0-0-0-0-0-0-0-0-0-0-0--|
B|--1-1-1-1-1-1-1-1-1-1-1-1--|
G|--0-0-0-0-0-0-0-0-0-0-0-0--|
D|--2-2-2-2-2-2-2-2-2-2-2-2--|
A|--3-3-3-3-3-3-3-3-3-3-3-3--|
E|--3-3-3-3-3-3-3-3-3-3-3-3--|


[Verse 2]

[Guitar 1]

So I spent...
P.M---------------------------------------------------------------------------------------------------------|
e|----------------------------------------------------------------------------------------------------------|
B|----------------------------------------------------------------------------------------------------------|
G|------------------------------------------------------------8-8-7-7---------------------------------------|
D|----------------------8-8-8----------------------------------------10-10-8-8---------------------8-8-8----|
A|--10-10-10-8-8-8-10-10-----10-10-10-8-8-10-10-10-8-8-8-10-10-----------------10-10-10-8-8-8-10-10-----10--|
E|----------------------------------------------------------------------------------------------------------|

P.M-----------------------------|          P.M---------------------------------------------------------------|
e|-----------------------------------------------------------------------------------------------------------|
B|-----------------------------------------------------------------------------------------------------------|
G|-------------------------------8-8-7/10-8-------------------------------------------------------8-8-7-7----|
D|-------------------------------------------------------------8-8-8-------------------------------------10--|
A|-10-10-8-8-10-10-10-8-8-8-10-10----------10-10-10-8-8-8-10-10-----10-10-10-8-8-10-10-10-8-8-8-10-----------|
E|-----------------------------------------------------------------------------------------------------------|

P.M---------------------------------------------|
e|------------------------------------------------------------8-6-----|
B|------------------------------------------------------8--------8-6--|
G|-------------------------------------------------8-10--10-8---------|
D|-10-8-8----------------------8-8-8--------------8----8--------------|
A|--------10-10-10-8-8-8-10-10------10-10-10-8-8----------------------|
E|--------------------------------------------------------------------|


[Bridge]

[Guitar 1]

You see now...
e|--4-4-4-4-4-4-4-4------------------|
B|--4-4-4-4-4-4-4-4-8-8-8-8-9-9-8-8--| x2
G|--5-5-5-5-5-5-5-5-8-8-8-8-8-8-8-8--|
D|--6-6-6-6-6-6-6-6-8-8-8-8-8-8-8-8--|
A|--6-6-6-6-6-6-6-6-6-6-6-6-6-6-6-6--|
E|--4-4-4-4-4-4-4-4------------------|

e|--4-4-4-4-4-4-4-4-8--8--8--8--6-6-6-6-4-4-4-4-4-4-4-4--|
B|--4-4-4-4-4-4-4-4-8--8--8--8--6-6-6-6-4-4-4-4-4-4-4-4--|
G|--5-5-5-5-5-5-5-5-8--8--8--8--7-7-7-7-5-5-5-5-5-5-5-5--|
D|--6-6-6-6-6-6-6-6-10-10-10-10-8-8-8-8-6-6-6-6-6-6-6-6--|
A|--6-6-6-6-6-6-6-6-10-10-10-10-8-8-8-8-6-6-6-6-6-6-6-6--|
E|--4-4-4-4-4-4-4-4-8--8--8--8--6-6-6-6-4-4-4-4-4-4-4-4--|

P.M--------------------------------|
e|-----------------------------------------------------------------------------------|
B|-----------------------------------------------------------------------------------|
G|----------------------------------15-15-15-15-15-15-15-15-12-12-12-12-10-10-10-10--|
D|--8-8-8-8-8-8-8-8-8-8-8-8-8-8-8-8--------------------------------------------------|
A|--8-8-8-8-8-8-8-8-8-8-8-8-8-8-8-8-13-13-13-13-13-13-13-13-10-10-10-10-8--8--8--8---|
E|--6-6-6-6-6-6-6-6-6-6-6-6-6-6-6-6--------------------------------------------------|


[Guitar 2]

e|--0-0-0-0-0-0-0-0-0-0-0-0-0-0-0-0--|
B|--1-1-1-1-1-1-1-1-1-1-1-1-1-1-1-1--| x2
G|--2-2-2-2-2-2-2-2-0-0-0-0-0-0-0-0--|
D|--3-3-3-3-3-3-3-3-2-2-2-2-2-2-2-2--|
A|--3-3-3-3-3-3-3-3-3-3-3-3-3-3-3-3--|
E|--1-1-1-1-1-1-1-1-3-3-3-3-3-3-3-3--|

e|--0-0-0-0-0-0-0-0-0-0-0-0-3-3-3-3-0-0-0-0-0-0-0-0--|
B|--1-1-1-1-1-1-1-1-1-1-1-1-0-0-0-0-1-1-1-1-1-1-1-1--|
G|--2-2-2-2-2-2-2-2-2-2-2-2-0-0-0-0-2-2-2-2-2-2-2-2--|
D|--3-3-3-3-3-3-3-3-2-2-2-2-0-0-0-0-3-3-3-3-3-3-3-3--|
A|--3-3-3-3-3-3-3-3-0-0-0-0-2-2-2-2-3-3-3-3-3-3-3-3--|
E|--1-1-1-1-1-1-1-1-x-x-x-x-3-3-3-3-1-1-1-1-1-1-1-1--|

P.M--------------------------------|
e|--3-3-3-3-3-3-3-3-3-3-3-3-3-3-3-3-3-3-3-3-3-3-3-3-3-3-3-3-3-3-3-3--|
B|--0-0-0-0-0-0-0-0-0-0-0-0-0-0-0-0-0-0-0-0-0-0-0-0-0-0-0-0-0-0-0-0--|
G|--0-0-0-0-0-0-0-0-0-0-0-0-0-0-0-0-0-0-0-0-0-0-0-0-0-0-0-0-0-0-0-0--|
D|--0-0-0-0-0-0-0-0-0-0-0-0-0-0-0-0-0-0-0-0-0-0-0-0-0-0-0-0-0-0-0-0--|
A|--2-2-2-2-2-2-2-2-2-2-2-2-2-2-2-2-2-2-2-2-2-2-2-2-2-2-2-2-2-2-2-2--|
E|--3-3-3-3-3-3-3-3-3-3-3-3-3-3-3-3-3-3-3-3-3-3-3-3-3-3-3-3-3-3-3-3--|


[Outro]

[Guitar 1]

See I, I was a...
e|------------------------------------|
B|------------------------------------| x4
G|------------------------------------|
D|------------------------------------|
A|--8-6--8-8-8-8-6----8-6--8-8-8-8-6--|
E|----------------8-8-----------------|

e|-----------------------------------------------------------------------------------------------------------|
B|-----------------------------------------------------------------------------------------------------------|
G|--10-8--10-10-10-10-8-------10-8--10-10-10-10-8----10-8--10-10-10-10-8-------10-8--10-10-10-10-12-15----10-|
D|----------------------10-10--------------------------------------------10-10-------------------------------|
A|--8--6--8--8--8--8--6-------8--6--8--8--8--8--6----8--6--8--8--8--8--6-------8--6--8--8--8--8--10-13----8--|
E|----------------------8--8---------------------------------------------8--8--------------------------------|

e|-----------------------------------------------------------------------------------------------|
B|-----------------------------------------------------------------------------------------------|
G|-8--10-10-10-10-8-------10-8--10-10-10-10-12-15----10-8--10-10-10-10-8-------------------------|
D|------------------10-10------------------------------------------------10-10-------------------|
A|-6--8--8--8--8--6-------8--6--8--8--8--8--10-13----8--6--8--8--8--8--6-------8-6--8-8-8-8-6\0--|
E|------------------8--8-------------------------------------------------8--8--------------------|


[Guitar 2]

e|--0-0-0-0-0-0-0-0-0-0-0-0-0-0-0-0--|
B|--1-1-1-1-1-1-1-1-1-1-1-1-1-1-1-1--| x7
G|--0-0-0-0-0-0-0-0-2-2-2-2-2-2-2-2--|
D|--2-2-2-2-2-2-2-2-3-3-3-3-3-3-3-3--|
A|--3-3-3-3-3-3-3-3-3-3-3-3-3-3-3-3--|
E|--3-3-3-3-3-3-3-3-1-1-1-1-1-1-1-1--|

e|--0-0-0-0-0-0-0-0-0--|
B|--1-1-1-1-1-1-1-1-1--|
G|--0-0-0-0-0-0-0-0-2--|
D|--2-2-2-2-2-2-2-2-3--|
A|--3-3-3-3-3-3-3-3-3--|
E|--3-3-3-3-3-3-3-3-1--|


Song structure:

[Intro]
[Verse 1]
[Pre-chorus]
[Chorus]
[Verse 2]
[Pre-chorus]
[Chorus] x2
[Bridge]
[Outro]


Lyrics:

[Intro]
I told you from the start that I was always gonna change.

[Verse 1]
I pissed you off again,
So that you'd leave me alone in Leeds again.
And I got my stuff and left,
'Cause I got this friend see who put me up again.

[Pre-chorus]
Oh but no--, you still had to call.
Oh but no--, you still had to come.

[Chorus]
But we just always seem to just fall out when I'm most in,
Need of it.

[Verse 2]
So I spent my yesterday,
Ducking your calls and in fear that things had changed.
So I tidied up my place,
'Cause you always told me it got me thinking straight.

[Chorus 2]
But we just always seem to just fall out when I'm most in,
Need of it.
And you just, always seem to just call-out when I'm up for,
Leaving it.

[Bridge]
You see now: I'm sorry if I drove your matches to  my clothes.
But you know how I can get sometimes.
You see now: I'm sorry if I drove your matches to my clothes.

[Outro]
See I, I was a test-tube baby that's why nobody gets me.
See I, struggle to sleep at night but it's fine, she never lets me.
See I, I was a test-tube baby that's why nobody gets me.
See I, struggle to sleep at night but it's fine, Mary don't let me.
Nobody gets me.

            
            
Suggest correction
Creating personal tab
Creating personal tab
You can edit any tab online and save it as your Personal.

You can edit, replace or remove any tab part or add personal notes – all changes will be seen only by you.

Personal tabs can be accessed anytime from any device, even offline.
Learn more »
comments
print report bad tab
2 comments total.
+1 reply
jav_ier_16 84 Aug 22, 2016 05:04 PM

omg finally, thank you very much

0 reply
Iest123 534 Aug 22, 2016 07:39 PM

Thank you :) What would you improve about it?

guest
You may want to rate the tab now too:
select rating
Wanna post a correction for this tab? Suggest correction