Oops, an error
Loading. Please wait.

Heathrow chords

version 1
version 1

Whole song

50,330 views 537 this week
2 commentsread comments
1 2 3 4 5
x 117
add to favorites
×
Save as Personal and add changes to this tab that will be seen only by you. Learn more ›
×
You can save this tab as Personal to edit and correct it or add notes. All changes will be seen only by you. Learn more »
launch autoscroll
font size
0
reset
transpose
0
reset
simplify chords
display chords
guitar tuner
edit
Autoscroll
slow
fast
+/-
esc
set tempo
stop
Strumming
There is no strumming pattern for this song yet. and get +5 IQ
Capo 2

Not 100% sure on the lyrics as this song's just came out, but here goes :)

[Intro]

Em A7 C
Em


[Verse]

Em
Love her from the get-go
A7
Pick her up from Heathrow
C                    Em
Whenever she needs me

Em
Watch her on the West End
A7
Pepper up her best friends
C                    Em
Whenever she needs me


[Chorus]

              G
Cause she was different league
           Em
When I was nothing much
              G
She was a different league
           Em
When I was nothing much


[Verse 2]

Em
Meet her when the tour's up
A7
Hug her like her mother would
C                    Em
Whenever she needs me

Em
Snog her in the kitchen
A7
Dance with her to Lemonworld
C                    Em
Whenever she needs me


[Chorus]

              G
Cause she was different league
           Em
When I was nothing much
          A7
She was a different league
           C
When I was nothing much
(I was nothing much)


[Solo]

(tab not relative to capo)

e|---------------------------------------------------------------------------|
B|------12b14r12---12b14r12--------------------------10----------------------|
G|-11------------------------9--11---------------9---------9/11-----9--------|
D|---------------------------------------9--11---------------------------11--|
A|---------------------------------------------------------------------------|
E|---------------------------------------------------------------------------|

e|---------------------------------------------------------------------------|
B|---------------------------------------------------------------------------|
G|-------------------------------------9--------11---------------------------|
D|---------9---------------------9-------------------------------------------|
A|-9--11------9-------9---11-------------------------------------------------|
E|---------------------------------------------------------------------------|

Chords for solo: Em A7 C Em


[Outro]

Em
Love her from the get-go
A7
Pick her up from Heathrow
C
Whenever she needs me



************************************

| r  Release
| b  Bend
| /  Slide up 

************************************

            
            
Suggest correction
Creating personal tab
Creating personal tab
You can edit any tab online and save it as your Personal.

You can edit, replace or remove any tab part or add personal notes – all changes will be seen only by you.

Personal tabs can be accessed anytime from any device, even offline.
Learn more »
comments
print report bad tab
2 comments total.
+1 reply
rees_ 10 Jun 07, 2016 05:59 AM

i think that second line of the solo has one wrong note:

D-------------9------
A--9----11---------11

should be:

D-------------9------
A--9----11----------9

apart from that great tab!

+1 reply
katmccort 23 Sep 04, 2017 07:30 PM

sweet tab

guest
You may want to rate the tab now too:
select rating
Wanna post a correction for this tab? Suggest correction