Oops, an error
Loading. Please wait.
We have an official Homesick tab made by UG professional guitarists. Check out the tab »
×
40,230 views 144 this week
6 commentsread comments
1 2 3 4 5
x 37
add to favorites
×
Save as Personal and add changes to this tab that will be seen only by you. Learn more ›
×
You can save this tab as Personal to edit and correct it or add notes. All changes will be seen only by you. Learn more »
launch autoscroll
font size
0
reset
how to read this tab
guitar tuner
edit
Autoscroll
slow
fast
+/-
esc
set tempo
stop
-------------------------------------------------------------------------------
                  Homesick - Catfish and the Bottlemen
-------------------------------------------------------------------------------
Tabbed by: Rory H
E-mail: Rdeh10@googlemail.com
Tuning: EADGBE
CAPO ON 6TH FRET

This is for the re-recorded version (album version) of Homesick. Any corrections or improvements are 
greatly appreciated! Thanks, and I hope you enjoy.


[INTRO/VERSE]

Fingerpick this with a clean tone for the most accurate sound
e|---------------------------------------------------------------------------|
B|---------------------------------------------------------------------------|
G|---0--------------------0----------------0---------------------------------| (x2)
D|-2-----4---2---0------2-----4---2------2-----4---2---0--------------2------|
A|-----5---3---2------------5---3------------5---3---2---2----2---0----------|
E|-------------------------------------------------------3--3---2---0--------|

e|-----------------------------------------------------------------------------------|
B|---3----0----1-------------3----0----1--------3----0----1--------------------------|
G|---4----0----2----2--------4----0----2--------4----0----2----2-0--------4---2---0--| 
D|-2-----------------------2------------------2---------------------------0---0---0--|
A|------5----3----3-------------5----3-------------5----3----3-----------------------|
E|---------------------------------------------------------------3------3---2---0----|


[CHORUS]

(Whack on a little bit of overdrive for this)
e|-----------------------------------------------------------------------|
B|---------------------------------------------3-3-3-------5-3-----------|
G|-4-4-4-2-2-2-0-0-0-----------0-2-4-4-4-2-2-2-------2-2-2-----4-2-------|
D|-------------------2-2-2-0-2-------------------------------------------|
A|-----------------------------------------------------------------------|
E|-----------------------------------------------------------------------|
     Em    D     C                   Em    D     C         <---- Guitar 2 plays these chords (still over
                                                                 drive and capo on 6)
e|-----------------------------------------------------------|
B|-----------------------------------------------------------|
G|-4-4-4-2-2-2-0-0-0-----------0-2-4-4-4-2-2-2-0-0-0-0-0-0-0-| <-- Let last note ring
D|-------------------2-2-2-0-2-------------------------------|
A|-----------------------------------------------------------|
E|-----------------------------------------------------------|
     Em    D     C                   Em    D     C
 

[VERSE]
   
e|-----------------------------------------------------|
B|------------------------------------1----------------|
G|---0--------------------0-----------0----------------| <- use some overdrive for last chord
D|-2-----4---2---0------2-----4---2---2----------------|
A|-----5---3---2------------5---3-----3----------------|
E|------------------------------------0----------------|


[PRE-CHORUS]

e|----------------------------------|
B|-------------------------3---0----|
G|----------------------------------|(x4) Muted, but release mute on 4th time
D|-0-2-2-0-2-2-0-2-2-0-2-0---0---0--|  
A|----------------------------------| 
E|----------------------------------| 


[CHORUS]

e|-----------------------------------------------------------------------|
B|---------------------------------------------3-3-3-------5-3-----------|
G|-4-4-4-2-2-2-0-0-0-----------0-2-4-4-4-2-2-2-------2-2-2-----4-2-------|
D|-------------------2-2-2-0-2-------------------------------------------|
A|-----------------------------------------------------------------------|
E|-----------------------------------------------------------------------|
     Em    D     C                   Em    D     C        

e|-----------------------------------------------------------|
B|-----------------------------------------------------------|
G|-4-4-4-2-2-2-0-0-0-----------0-2-4-4-4-2-2-2-0-0-0-0-0-0-0-| 
D|-------------------2-2-2-0-2-------------------------------|
A|-----------------------------------------------------------|
E|-----------------------------------------------------------|
     Em    D     C                   Em    D     C

e|-------------------------------------------------------------------------|
B|-----------------------------------------------3-3-3-------5-3-----------|
G|-2-4-4-4-2-2-2-0-0-0-----------0-2-4-4-4-2-2-2-------2-2-2-----4-2-------|
D|---------------------2-2-2-0-2-------------------------------------------|
A|-------------------------------------------------------------------------|
E|-------------------------------------------------------------------------|
       G     D     C                   Em    D     C         
e|-----------------------------------------------------------|
B|-----------------------------------------------------------|
G|-4-4-4-2-2-2-0-0-0-----------0-2-4-4-4-2-2-2-0-0-0-0-0-0-0-| 
D|-------------------2-2-2-0-2-------------------------------|
A|-----------------------------------------------------------|
E|-----------------------------------------------------------|
     G     D     C                   Em    D     C


[SOLO]

e|----------------------------------------------------------------------------------------------|
B|----------------------------------------------------------------------------------------------|
G|-----------------------------------0-2br-2--------------------------------------0-2-0---------|
D|---------0-2-4-2----------0-2-4--2---------2----------0-2-4-2----------0-2-4--2-------4-------|
A|-----0-2--------------0-2-------------------------0-2--------------0-2------------------------|
E|-0-3--------------0-3-------------------------0-3--------------0-3----------------------------|


Now for the outro just play the fingerpicked bit again, clean tone. Don't play it all, just the first 
couple of bars


************************************

| br  Bend release

************************************

            
            
Suggest correction
Creating personal tab
Creating personal tab
You can edit any tab online and save it as your Personal.

You can edit, replace or remove any tab part or add personal notes – all changes will be seen only by you.

Personal tabs can be accessed anytime from any device, even offline.
Learn more »
comments
print report bad tab
6 comments total. Showing first comments. show 1 bad comment
0 reply
Minipersons 31 Dec 31, 2014 10:46 PM, edited on January 1 2015, 03:52 am

Im thinking the capo needs to be on 7. The song is a bit flat compared to the album version.

+2 reply
Minipersons 31 Jan 15, 2015 04:19 PM

My bad. I was listening to the EP version

guest
You may want to rate the tab now too:
select rating
Wanna post a correction for this tab? Suggest correction