Oops, an error
Loading. Please wait.

Hourglass tab

version 2
version 2

Whole song

25,039 views 66 this week
8 commentsread comments
1 2 3 4 5
x 18
add to favorites
×
Save as Personal and add changes to this tab that will be seen only by you. Learn more ›
×
You can save this tab as Personal to edit and correct it or add notes. All changes will be seen only by you. Learn more »
launch autoscroll
font size
0
reset
how to read this tab
guitar tuner
edit
Autoscroll
slow
fast
+/-
esc
set tempo
stop
-------------------------------------------------------------------------------
                    Hourglass - Catfish and the Bottlemen
-------------------------------------------------------------------------------
Tabbed by: Rory H
E-mail: Rdeh10@googlemail.com

Tuning: EADGBe

*CAPO ON 2*

[Intro/Verse 1]

e|---------------------------------|
B|---------------------------------|
G|---------------------------------| (x4)
D|---------------------------------|
A|-11-11-11-11-9--2-2--4-4--7--7-7-|
E|--0--0--0--0-0--0-0--0-0--0--0-0-|


[Part 2]

e|-----------------------------------------------------------------------------|
B|-----------------------------------------------------------------------------|
G|-----------------------------------------------------------------------------|
D|-----------------------------------------------------------------------------|
A|-11--11-11-11-9-9--11--11-11-11-9-9--11-11-11-11-9--2-2--4-4--7--7-7---7-7-7-|
E|--0---0--0--0-0-0---0---0--0--0-0-0---0--0--0--0-0--0-0--0-0--0--0-0---0-0-0-|


[Chorus]

e|----------------------------------------------------------------------------------------------|
B|-2--2-2--2-2-2--4--4-4--4-4-4--2--2-2--2-2-2--4--4-4--4-4-4--2--2-2--2-2-5-4-2-4--------------|
G|-2--2-2--2-2-2--4--4-4--4-4-4--2--2-2--2-2-2--4--4-4--4-4-4--2--2-2--2-2-6-4-2-4-1--1-1-1-1-1-|
D|-4--4-4--4-4-4--6--6-6--6-6-6--4--4-4--4-4-4--6--6-6--6-6-6--4--4-4--4-4-7-6-4-6-2--2-2-2-2-2-|
A|-4--4-4--4-4-4--6--6-6--6-6-6--4--4-4--4-4-4--6--6-6--6-6-6--4--4-4--4-4-7-6-4-6-2--2-2-2-2-2-|
E|-2--2-2--2-2-2--4--4-4--4-4-4--2--2-2--2-2-2--4--4-4--4-4-4--2--2-2--2-2-5-4-2-4-0--0-0-0-0-0-|
                                                                                      ^ ^^^^
                                                                    Listen to the song 
                                                                    to get this bit right
[Intro] x2

[Part 2] x1

[Chorus] x1 - getting heavier on the E chord as you go into the next part

Guitar 1:
e|---------------------------------------------------------|
B|---------------------------------------------------------|
G|-6-----1---6-----1-----4--6-----1-----4-----1---4-----1--|
D|-6--7--2---6--7--2-----4--6--7--2-----4--7--2---4--7--2--|
A|-4--7--2---4--7--2-----2--4--7--2-----2--7--2---2--7--2--|
E|----5--0------5--0-----------5--0--------5--0------5--0--|
  The rhythm is fairly easy to get and the numer of times to play the chord

Guitar 2:
(A little dirtier tone) - playing at the same time as above
e|---------------------------------------------------------|
B|-5---------5-----------4--9-----------4-----1---4-----1--|
G|-6---------6-----------4--9--6--------4--6--2---4--6--2--|
D|-6---------6-----------4--9--7--------4--7--2---4--7--2--|
A|-4---------4-----------2--7--7--------2--7--0---2--7--0--|
E|-----------------------------5-----------5---------5-----|

Guitar 3:
Also dirtier tone - also playing at the same time as above
e|---------------------------------------------------------------------------------------------|
B|---------------------------------------------------------------------------------------------|
G|-------------------------------------------------------------------------------------2h4-4b6-|
D|---------------------------------------------------------------------------------2h4---------|
A|---------------------------------------------2--------2------------2--------2----------------|
E|--------------------------------------0-2-4-----0-2-4---4----0-2-4----0-2-4---4--------------|

Repeat intro and part 2 once and we're done!

************************************

| /   slide up
| \   slide down
| h   hammer-on
| p   pull-off
| ~   vibrato
| +   harmonic
| x   Mute note
| b   Bend
| pb  Pre-bend
| br  Bend release
| pbr Pre-bend release
| brb Bend release bend

************************************

            
            
Suggest correction
Creating personal tab
Creating personal tab
You can edit any tab online and save it as your Personal.

You can edit, replace or remove any tab part or add personal notes – all changes will be seen only by you.

Personal tabs can be accessed anytime from any device, even offline.
Learn more »
comments
print report bad tab
8 comments total. Showing first comments.
0 reply
channellsguitar 36 Dec 13, 2014 10:01 AM

Clearly wrong. Chords are good but needs no capo and completely incorrect verse. Transpose 2 frets up to get the correct sound as on the studio version.

0 reply
irhagzy 1,297 Dec 13, 2014 11:35 AM, edited at 04:52 pm

I hope you realise notes are relative to the capo? This sounds ok to me and I have checked with the studio rec and the times I've seen them live...

-1 reply
robchapman12 10 Dec 15, 2014 01:34 AM

anyone know how they play it live? defo isn't like this he has capo on 4

guest
You may want to rate the tab now too:
select rating
Wanna post a correction for this tab? Suggest correction