Oops, an error
Loading. Please wait.

Hourglass tab

version 3
version 3

Whole song

29,606 views 198 this week
3 commentsread comments
1 2 3 4 5
x 51
add to favorites
×
Save as Personal and add changes to this tab that will be seen only by you. Learn more ›
×
You can save this tab as Personal to edit and correct it or add notes. All changes will be seen only by you. Learn more »
launch autoscroll
font size
0
reset
how to read this tab
guitar tuner
edit
Autoscroll
slow
fast
+/-
esc
set tempo
stop
-------------------------------------------------------------------------------
                             HOURGLASS - Catfish and The Bottlemen
-------------------------------------------------------------------------------
This is my first tab so don't hate me if it's wrong!

CAPO 4
Tuning: Open D
This is the way Van plays the song live. https://www.youtube.com/watch?v=XkM7YpOoIzA

Frets relative to the capo.


[Intro]

D|--------------------------------------|
A|--------------------------------------|
F#--------------------------------------|
D|--------------------------------------|
A|--9--9--9--9--7--7--0--0--2--2--5--5--|
D|--0--0--0--0--0--0--0--0--0--0--0--0--|


[Verse 1]

D|--------------------------------------|
A|--------------------------------------|
F#--------------------------------------|
D|--------------------------------------|
A|--9--9--9--9--7--7--0--0--2--2--5--5--|
D|--0--0--0--0--0--0--0--0--0--0--0--0--|(x2)


[Verse 2/Pre-Chorus]

D|--------------------------------------------------------------------------|
A|--------------------------------------------------------------------------|
F#--------------------------------------------------------------------------|
D|--------------------------------------------------------------------------|
A|--9--9--9--9--7--7--9--9--9--9--7--7--9--9--9--9--7--7--0--0--2--2--5--5--|
D|--0--0--0--0--0--0--0--0--0--0--0--0--0--0--0--0--0--0--0--0--0--0--0--0--|


[Chorus]

D|--0--0--0--0--0--0--0--0----------------------|
A|--0--0--0--0--0--0--0--0----------------------|
F#--1--3--1--5--3--1--3--0--Play-open-strings---|
D|--0--0--0--0--0--0--0--0-----until-next-------|
A|--0--0--0--0--0--0--0--0--------verse---------|
D|--2--0--2--5--4--2--4--0----------------------|


(REPEAT VERSE AND CHORUS)


[Bridge]

(Not perfect but still sounds decent)
                     
D|--0--0--0--0--0--0--and----0--0--0--0-------------0--0--0--0--|
A|--2--0--0--2--0--0--ill----0--2--0--0-------------0- 0--0--0--|
F#--0--5--0--0--5--0--say----7--0--5--0--oooooohh---7--5--7--0--| (X2 on the ooooh part)
D|--0--5--0--0--5--0--im-----0--0--5--0----part-----0--0--0--0--|
A|--2--0--0--2--0--0--sorry--7--2--0--0-------------7--5--7--0--|
D|--0--5--0--0--5--0---------7--0--5--0-------------7--5--7--0--|


[Outro]

D|--------------------------------------|
A|--------------------------------------|
F#--------------------------------------|
D|--------------------------------------| 
A|--9--9--9--9--7--7--0--0--2--2--5--5--|
D|--0--0--0--0--0--0--0--0--0--0--0--0--|(x2)

D|--------------------------------------------------------------------------|
A|--------------------------------------------------------------------------|
F#--------------------------------------------------------------------------|
D|--------------------------------------------------------------------------|
A|--9--9--9--9--7--7--9--9--9--9--7--7--9--9--9--9--7--7--0--0--2--2--5--5--|
D|--0--0--0--0--0--0--0--0--0--0--0--0--0--0--0--0--0--0--0--0--0--0--0--0--|

            
            
Suggest correction
Creating personal tab
Creating personal tab
You can edit any tab online and save it as your Personal.

You can edit, replace or remove any tab part or add personal notes – all changes will be seen only by you.

Personal tabs can be accessed anytime from any device, even offline.
Learn more »
comments
print report bad tab
3 comments total.
+1 reply
AngelaLora 100 Aug 07, 2015 01:39 PM, edited at 05:47 pm

*I'm going off the ewan mcgregor cover for this

The bridge is

D|--0--0--0--0--0--0--and----0--0--0--0-------------0--0--0--0--|
A|--2--0--0--2--0--0--ill----0--2--0--0-------------0- 0--0--0--|
F#--0--3--0--0--3--0--say----7--0--3--0--oooooohh---7--5--7--0--|
D|--0--0--0--0--0--0--im-----7--0--0--0----part-----0--0--0--0--|
A|--2--0--0--2--0--0--sorry--0--2--0--0-------------0--0--0--0--|
D|--0--4--0--0--4--0---------7--0--4--0-------------7--5--7--0--|

Also I think the chorus is just:
D|--0--0--0--0--0--0--0--0----------------------|
A|--0--0--0--0--0--0--0--0----------------------|
F#--1--3--1--5--3--1--3--0----------------------|
D|--0--0--0--0--0--0--0--0----------------------|
A|--0--0--0--0--0--0--0--0----------------------|
D|--2--4--2--5--4--2--4--0----------------------|

0 reply
benn.bryant 58 Aug 11, 2015 04:00 AM

Changes made now thank you!

+1 reply
KidYatori 10 Nov 24, 2015 04:36 PM

can you just put the notes in letters, idk how to read sheet music .-.

guest
You may want to rate the tab now too:
select rating
Wanna post a correction for this tab? Suggest correction