Oops, an error
Loading. Please wait.

Tyrants And Trippin tab

385 views 9 this week
4 commentsread comments
1 2 3 4 5
x 3
add to favorites
×
Save as Personal and add changes to this tab that will be seen only by you. Learn more ›
×
You can save this tab as Personal to edit and correct it or add notes. All changes will be seen only by you. Learn more »
launch autoscroll
font size
0
reset
how to read this tab
guitar tuner
edit
Autoscroll
slow
fast
+/-
esc
set tempo
stop
Author
Difficulty
Tyrants and Trippin' - Catfish and the Bottlemen

Guitar 1 - Ryan McCann (Capo 6th)
Guitar 2 - Billy Bibby

[Intro]

[Guitar 1] (Clean)

e|-----------------------------------------3-----0--------0-0-0-2--|
B|-----------------------------------------0-0-0-0--------0-0-0----|
G|--7-7-6h7-6h7--6h7-6h7--6h7-6h7----------0-0-0-0----0-0-0-0-0----|
D|--0-0-0---0----0---0----0---0-----7--0-0-0-0-0------2-2-2--------|
A|--5-5-5---5----5---5----5---5-----7--2-2-2----------2-2-2--------|
E|--7-7-7---7----7---7----7---7----5---3-3-3----------0-0-0--------|

e|-----------------------------------------3-------------------0-0-0-2--|
B|-----------------------------------------0-0-0---------------0-0-0----|
G|--7-7-6h7-6h7--6h7-6h7--6h7-6h7----------0-0-0-4-2-0-----0-0-0-0-0----|
D|--0-0-0---0----0---0----0---0-----7--0-0-0-0-0------4-2--2-2-2--------|
A|--5-5-5---5----5---5----5---5-----7--2-2-2---------------2-2-2--------|
E|--7-7-7---7----7---7----7---7----5---3-3-3---------------0-0-0--------|

(Distortion)
e|---|
B|---|
G|-7-|
D|-0-|
A|-5-|
E|-7-|

[Guitar 2] (Comes in on 2nd bar)

e|--------------------------------------------------------|
B|--16--------------16--------18----16------18----16------|
G|--------17------------17--------------17------------17--|
D|--------------15----------------------------------------|
A|--------------------------------------------------------|
E|--------------------------------------------------------|

(Distortion)
e|----|
B|-9--|
G|-10-|
D|-10-|
A|-8--|
E|----|


[Verse 1]

[Guitar 1] (Distortion)
e|----------------3--------0----2---------------3-3-3-3-3-3-3-3-0-0-0-2--2-2--|
B|----------------0--------0--------------------0-0-0-0-0-0-0-0-0-0-0-0--0-0--|
G|--7-------------0--------0---------7----------0-0-0-0-0-0-0-0-0-0-0-0--0-0--| x2
D|--0-------------0--------2---------0----------0-0-0-0-0-0-0-0-2-2-2-0--0-0--|
A|--5--------0----2--------2---------5----------2-2-2-2-2-2-2-x-2-2-2-2--2-2--|
E|--7--------5----3--------0---------7----------3-3-3-3-3-3-3-2-0-0-0-0--0-0--|

[Guitar 2] (Distortion)
e|--8-------------9--------6---------8------------------------------------------------------|
B|--9-------------9--------6---------9----------16b18rb18r-----------16b18rb18r-------------|
G|--10------------10-------6---------10-------------------17-------------------17-----------|
D|--10------------11-------8---------10---------------------15-15-15-------------15--15-15--|
A|--8-------------11-------8---------8------------------------------------------------------|
E|----------------9--------6----------------------------------------------------------------|

e|--------------------------------------------------------------------------|
B|------16----------16----------16------18--16----------16----------16------|
G|----------17----------17----------17----------17----------17----------17--|
D|--15----------15----------15----------------------15----------15----------|
A|--------------------------------------------------------------------------|
E|--------------------------------------------------------------------------|

e|---------------------------------------------|
B|--16b18rb18r-----------16b18rb18r------------|
G|------------17-------------------17----------|
D|--------------15-15-15-------------15-15-15--|
A|---------------------------------------------|
E|---------------------------------------------|


[Verse 2 (Part 1)] 

[Guitar 1] (Clean initially, distortion when strumming the D chord)

e|--2-----3-----2-2-2-2-2-2-2-2-2-2-2-2-2-2-2-2--|
B|--3--2--0-----3-3-3-3-3-3-3-3-3-3-3-3-3-3-3-3--|
G|--4--2--0-----2-2-2-2-2-2-2-2-2-2-2-2-2-2-2-2--|x4
D|--4--2--0--0--0-0-0-0-0-0-0-0-0-0-0-0-0-0-0-0--|
A|--2--0--2--x-----------------------------------|
E|--------3--2-----------------------------------|

e|--2-2-2-2-2-2-2-2-2-2-2-2-2-2-2-2--|
B|--3-3-3-3-3-3-3-3-3-3-3-3-3-3-3-3--|
G|--2-2-2-2-2-2-2-2-2-2-2-2-2-2-2-2--|
D|--0-0-0-0-0-0-0-0-0-0-0-0-0-0-0-0--|
A|-----------------------------------|
E|-----------------------------------|

[Guitar 2] (Distortion, comes in when D chord is strummed on guitar 1)
e|--------------------------------------------------18-16------------16-18-16--------------|
B|-------------------------------------------------------18-16--16-18--------18-16--16-18--|
G|--13-13-13-13-13-13-10-10-13-13-13-13-13br-10---------------17------------------17-------|x2
D|-----------------------------------------------------------------------------------------|
A|-----------------------------------------------------------------------------------------|
E|-----------------------------------------------------------------------------------------|

e|--18-16--18-16--18-16--18-16--16--|
B|-------18-----18-----18-----18----|
G|----------------------------------|
D|----------------------------------|
A|----------------------------------|
E|----------------------------------|


[Verse 2 (Part 2)]

[Guitar 1] (Same as part 1, distortion with the D chord)
e|----------------------2-2-2-2-2-2-2-2-2-2-2-2-2-2-2-2--|
B|--2----0----2----0----3-3-3-3-3-3-3-3-3-3-3-3-3-3-3-3--|
G|--2----0----2----0----2-2-2-2-2-2-2-2-2-2-2-2-2-2-2-2--|
D|--2----0----2----0----0-0-0-0-0-0-0-0-0-0-0-0-0-0-0-0--|
A|--0----2----0----2-------------------------------------|
E|-------3---------3-------------------------------------|

e|--2-2-2-2-2-2-2-2-2-2-2-2-2-2-2-2--|
B|--3-3-3-3-3-3-3-3-3-3-3-3-3-3-3-3--|
G|--2-2-2-2-2-2-2-2-2-2-2-2-2-2-2-2--|
D|--0-0-0-0-0-0-0-0-0-0-0-0-0-0-0-0--|
A|-----------------------------------|
E|-----------------------------------|

[Guitar 2] [Distortion]
e|---------------------------------------------------------------------------------------|
B|---------------------------------------------------------------------------------------|
G|--13----10-------10--13br--10-----10--13-13-13-13-13-13-13-13-13-13-13-13-13-13-13-13--|x2
D|--------------13---------------13------------------------------------------------------|
A|---------------------------------------------------------------------------------------|
E|---------------------------------------------------------------------------------------|

e|------------------------------------------------------------------|
B|------------------------------------------------------------------|
G|--13-13-13-13-13-13-13-13-13-13-13-13-13-13-13-13-13-13-13-13-13--|
D|------------------------------------------------------------------|
A|------------------------------------------------------------------|
E|------------------------------------------------------------------|


[Solo]

[Guitar 1] (Distortion)

e|------------------3-3-3-3-3-3-3-3-----------------3-3-3-3-3-3-3-3-----------------3-3-3-3-3-3-3-3--|
B|--2-2-2-2-2-2-2-2-0-0-0-0-0-0-0-0-2-2-2-2-2-2-2-2-0-0-0-0-0-0-0-0-2-x-2-x-2-2-2-2-0-0-0-0-0-0-0-0--|
G|--2-2-2-2-2-2-2-2-0-0-0-0-0-0-0-0-2-2-2-2-2-2-2-2-0-0-0-0-0-0-0-0-2-x-2-x-2-2-2-2-0-0-0-0-0-0-0-0--|
D|--2-2-2-2-2-2-2-2-0-0-0-0-0-0-0-0-2-2-2-2-2-2-2-2-0-0-0-0-0-0-0-0-2-x-2-x-2-2-2-2-0-0-0-0-0-0-0-0--|
A|--0-0-0-0-0-0-0-0-2-2-2-2-2-2-2-2-0-0-0-0-0-0-0-0-2-2-2-2-2-2-2-2-0-x-0-x-0-0-0-0-2-2-2-2-2-2-2-2--|
E|------------------3-3-3-3-3-3-3-3-----------------3-3-3-3-3-3-3-3-----------------3-3-3-3-3-3-3-3--|

e|------------------3-3-3-3-3-3-3-3--|
B|--2-x-2-x-2-2-2-2-0-0-0-0-0-0-0-0--|
G|--2-x-2-x-2-2-2-2-0-0-0-0-0-0-0-0--|
D|--2-x-2-x-2-2-2-2-0-0-0-0-0-0-0-0--|
A|--0-x-0-x-0-0-0-0-2-2-2-2-2-2-2-2--|
E|------------------3-3-3-3-3-3-3-3--|

[Guitar 2] (Distortion)
e|-----------------------------------------------------------------------------------------------------------|
B|--9-8-6--------9-8-6--------9-8-6--------9-8-6--------9-8-6--------9-8-6--------9-8-6---------9-8-6--------|
G|-------8-6-5--------8-6-5--------8-6-5--------8-6-5--------8-6-5--------8-6-5--------8-6-5---------8-6-5---|
D|------------8-6----------8-6----------8-6----------8-6----------8-6----------8-6----------8-6-----------8--|
A|-----------------------------------------------------------------------------------------------------------|
E|-----------------------------------------------------------------------------------------------------------|


[Chorus (Part 1)]

[Guitar 1] (Clean)
e|--------------------------------------------------------|
B|--8-8-8-7--7-7-------8--8-8--8-8-8-7--7-7-------8--8-8--|
G|--0-0-0-0--0-0-7-7-7-0--0-0--0-0-0-0--0-0-7-7-7-0--0-0--|x4
D|--0-0-0-0--0-0-0-0-0-0--0-0--0-0-0-0--0-0-0-0-0-0--0-0--|
A|--7-7-7-5--5-5-5-5-5-7--7-7--7-7-7-5--5-5-5-5-5-7--7-7--|
E|---------------7-7-7-8--8-8---------------7-7-7-8--8-8--|

[Guitar 2] (Clean, comes in on the 3rd time Guitar 1 strums the chord sequence)
e|-----13-----11-------------------13-----11----------------|
B|--14-----13--------14-----14--14-----13--------14-----14--|
G|----------------13-----15-------------------13-----15-----|x2
D|----------------------------------------------------------|
A|----------------------------------------------------------|
E|----------------------------------------------------------|


[Chorus] (Part 2)

[Guitar 1] (Distortion)
e|--------------------------------------------------------|
B|--8-8-8-7--7-7-------8--8-8--8-8-8-7--7-7-------8--8-8--|
G|--0-0-0-0--0-0-7-7-7-0--0-0--0-0-0-0--0-0-7-7-7-0--0-0--|x4
D|--0-0-0-0--0-0-0-0-0-0--0-0--0-0-0-0--0-0-0-0-0-0--0-0--|
A|--7-7-7-5--5-5-5-5-5-7--7-7--7-7-7-5--5-5-5-5-5-7--7-7--|
E|---------------7-7-7-8--8-8---------------7-7-7-8--8-8--|

[Guitar 2] (Distortion)
e|----------------11------------------------------------------11----------------------------|
B|--14-14-14-13-13--13-13---------------14------14-14-14-13-13--13-13--------------14-------|
G|------------------------13-13-13-15-15--15-15----------------------13-13-13-15-15--15-15--|x4
D|------------------------------------------------------------------------------------------|
A|------------------------------------------------------------------------------------------|
E|------------------------------------------------------------------------------------------|


[Chorus] (Part 3)

[Guitar 1] (Distortion)
e|--------------------------------------------------------|
B|--8-8-8-7--7-7-------8--8-8--8-8-8-7--7-7-------8--8-8--|
G|--0-0-0-0--0-0-7-7-7-0--0-0--0-0-0-0--0-0-7-7-7-0--0-0--|x4
D|--0-0-0-0--0-0-0-0-0-0--0-0--0-0-0-0--0-0-0-0-0-0--0-0--|
A|--7-7-7-5--5-5-5-5-5-7--7-7--7-7-7-5--5-5-5-5-5-7--7-7--|
E|---------------7-7-7-8--8-8---------------7-7-7-8--8-8--|

e|----------------------------------|
B|--8--7-------8------8--7-------8--|
G|--0--0----7--0------0--0----7--0--|
D|--0--0----0--0------0--7----0--0--|
A|--7--5----5--7------7--5----5--7--|
E|----------7--8--------------7--8--|

[Guitar 2] (Distortion)
e|--13-13-13-11-11-11-11-11-------------------------13-13-13-11-11-11-11-11--------------------------|
B|--14-14-14-13-13-13-13-13-14-14-14-14-14-14-14-14-14-14-14-13-13-13-13-13-14-14-14-14-14-14-14-14--|
G|--------------------------13-13-13-15-15-15-15-15-------------------------13-13-13-15-15-15-15-15--|x4
D|---------------------------------------------------------------------------------------------------|
A|---------------------------------------------------------------------------------------------------|
E|---------------------------------------------------------------------------------------------------|

e|--13--11----------13--11----------|
B|--14--13--14--14--14--13--14--14--|
G|----------13--15----------13--15--|
D|----------------------------------|
A|----------------------------------|
E|----------------------------------|


[Trippin'] (Part 1)

[Guitar 1] (Distortion)
e|--0-0-0-0--0-0-0-0--0-0-0-0--0-0-0-0-0-0-0--|
B|--0-0-0-0--0-0-0-0--0-0-0-0--0-0-0-0-0-0-0--|
G|--0-0-0-0--0-0-0-0--0-0-0-0--0-0-0-0-0-0-0--|
D|--2-2-2-2--2-2-2-2--2-2-2-2--2-2-2-2-2-2-2--|
A|--3-3-3-3--3-3-3-3--3-3-3-3--3-3-3-3-3-3-3--|
E|--3-3-3-3--3-3-3-3--3-3-3-3--3-3-3-3-3-3-3--|

P.M----------------------------------|
e|------------------------------------|
B|--------0-------0-------0-------0---|
G|---------------------------------0--|
D|------2-------2-------2-------2-----|
A|----3-------3-------3-------3-------|
E|--3-------3-------3-------3---------|

 (Distortion)
e|--0-0-0-0--0-0-0-0--0-0-0-0--0-0-0-0-0--0-0--0-0-0-0--0-0-0-0--0-0-0-0--0-0-0-0-0-0-0--|
B|--0-0-0-0--0-0-0-0--0-0-0-0--0-0-0-0-0--0-0--0-0-0-0--0-0-0-0--0-0-0-0--0-0-0-0-0-0-0--|
G|--0-0-0-0--0-0-0-0--0-0-0-0--0-0-0-0-0--0-0--0-0-0-0--0-0-0-0--0-0-0-0--0-0-0-0-0-0-0--|
D|--2-2-2-2--2-2-2-2--2-2-2-2--2-2-2-2-2--2-2--2-2-2-2--2-2-2-2--2-2-2-2--2-2-2-2-2-2-2--|
A|--3-3-3-3--3-3-3-3--3-3-3-3--3-3-3-3-3--3-3--3-3-3-3--3-3-3-3--3-3-3-3--3-3-3-3-3-3-3--|
E|--3-3-3-3--3-3-3-3--3-3-3-3--3-3-3-3-3--3-3--3-3-3-3--3-3-3-3--3-3-3-3--3-3-3-3-3-3-3--|

[Guitar 2] (Distortion)
e|------------------------------------------------------|
B|------------------------------------------------------|
G|-----------------------------------------13-13-13-13--|
D|--13-13-13-13--15-15-15-15--16-16-16-16---------------|
A|------------------------------------------------------|
E|------------------------------------------------------|
 (Played after break) (Use whammy bar to variate the pitch between the 14th/16th fret on B string)
e|-----------------------------------------------------------------------------------------------------|
B|---------------13-13-13-13--14-14-14-14--16-16-16-16--16-16-16-16-16-14-14-14-14--16-16-16-16-16-16--|
G|--15-15-15-15----------------------------------------------------------------------------------------|
D|-----------------------------------------------------------------------------------------------------|
A|-----------------------------------------------------------------------------------------------------|
E|-----------------------------------------------------------------------------------------------------|

[Trippin'] (Part 2)

[Guitar 1] (Distorted)
e|--0-0-0-0-0-0-0-0-0-0-0-0-0-0-0-0-0-0-0-0-0-0-0-0-0-0-0-0-0-0-0-0--|
B|--0-0-0-0-0-0-0-0-0-0-0-0-0-0-0-0-0-0-0-0-0-0-0-0-0-0-0-0-0-0-0-0--|
G|--0-0-0-0-0-0-0-0-0-0-0-0-0-0-0-0-0-0-0-0-0-0-0-0-0-0-0-0-0-0-0-0--| (PLayed till the end of the song)
D|--2-2-2-2-2-2-2-2-0-0-0-0-0-0-0-0-2-2-2-2-2-2-2-2-0-0-0-0-0-0-0-0--|
A|--3-3-3-3-3-3-3-3-5-5-5-5-5-5-5-5-2-2-2-2-2-2-2-2-2-2-2-2-2-2-2-2--|
E|--3-3-3-3-3-3-3-3-5-5-5-5-5-5-5-5-0-0-0-0-0-0-0-0-3-3-3-3-3-3-3-3--|

[Guitar 2] (Distorted)
e|--16-16-16-14-14-14-13-13--------13-13-13-14-14-16-16-16-14-14-14-13-13--13-14-13--13-14--|
B|-------------------------16-16-16--------------------------------------14--------14-------|
G|------------------------------------------------------------------------------------------|
D|------------------------------------------------------------------------------------------|
A|------------------------------------------------------------------------------------------|
E|------------------------------------------------------------------------------------------|

e|--16-16-16-14-14-14-13-13--------13-13-13-14-14---------------------------|
B|-------------------------16-16-16---------------9-7-6-9-7-6-9-7-6-9-7-6---|(Both bars played till end) 
G|-----------------------------------------------------8-----8-----8-----8--|
D|--------------------------------------------------------------------------|
A|--------------------------------------------------------------------------|
E|--------------------------------------------------------------------------|


[Lyrics]

[Verse 1]
Eyes rolled back, guess we were living fast
Where did you go? Yeah where did you go?
Your eyes go to show
That it was so rare to see you sober
So the street lights would carry us home.

I spend my night trying to get a grip of you
And I'll do my best to get my hands under your jumper
You know I'd love to
Your divine ribs would help break mine
We hit the ground, yeah lets hit the ground.

[Verse 2]
Nothing's alright, can't leave it.
And I won't feel the same in the morning.
Nothing's alright, we're leaving.
And I won't feel the same in the morning.

And I know that I've done wrong
And I know I should have come home to you
(She, she won't put out, she, she won't put out)
And I know that I've done wrong
And I know I should have come home to you
(She, she won't put out, she, she won't put out
She, she won't put out, she, she won't put.)

[Chorus]
Tyrants help build us, they won't mind throwin' us away
If Tyrants help build us, then they won't mind throwin' us away. x2

************************************

| x   Dead note
| h   Hammer-on
| r   Release
| b   Bend
| br  Bend release
| PM  Palm mute

 ************************************

            
            
Suggest correction
Creating personal tab
Creating personal tab
You can edit any tab online and save it as your Personal.

You can edit, replace or remove any tab part or add personal notes – all changes will be seen only by you.

Personal tabs can be accessed anytime from any device, even offline.
Learn more »
Give kudos to tab author, rate the tab!
1 2 3 4 5
comments
print report bad tab
4 comments total. Showing first comments.
+1 reply
includo 59 Jan 04, 2017 03:46 PM

Absolutley perfect! Any chance you could do any tabs for their live versions? Specifically outside as its a step down to the record version i believe.

0 reply
Iest123 534 Jan 04, 2017 05:15 PM

I was going to work on more of their older stuff but I'll give it a go for you :) Any other old songs you'd like me to work on too? Thanks for the rate! :D

0 reply
includo 59 Jan 04, 2017 07:02 PM

You legend! I would love God Gave Her Soul, one of my fav old CATB songs! But I think I know the majority of the balcony, but your tabs seem a lot better than my ear so I am down for a surprise!

guest
You may want to rate the tab now too:
select rating
Wanna post a correction for this tab? Suggest correction