Oops, an error
Loading. Please wait.

North Berwick Witch Trials tab

version 2
version 2

Whole song

1,107 views 1 this week
no commentswrite comment
1 2 3 4 5
1 last vote to show rating
add to favorites
×
Save as Personal and add changes to this tab that will be seen only by you. Learn more ›
×
You can save this tab as Personal to edit and correct it or add notes. All changes will be seen only by you. Learn more »
launch autoscroll
font size
0
reset
how to read this tab
guitar tuner
edit
Autoscroll
slow
fast
+/-
esc
set tempo
stop
-------------------------------------------------------------------------------
                             North Berwick Witch Trials - Cathedral
-------------------------------------------------------------------------------
Tabbed by: RhoninX
Email: lisekpl@o2.pl

UG-Profile: http://profile.ultimate-guitar.com/RhoninX/

Tuning: CGD#A#FC


C ||-------|--------------------|-------------------|--------------------|
G ||-------|--------------------|-------------------|--------------------|
D#||-------|--------------------|-------------------|--------------------|
A#||-------|--------------------|-------------------|--------------------|
F ||-------|--9--------L--------|--L----------------|--9--------L--------|
C ||-------|--7--------L--------|--L----------------|--7--------L--------|


  W                   H        H           W                   H        H         
-------------------|--------------------|-------------------|--------------------|
-------------------|--------------------|-------------------|--------------------|
-------------------|--------------------|-------------------|--------------------|
-------------------|--------------------|-------------------|--------------------|
--L----------------|--9--------L--------|--L----------------|--9--------L--------|
--L----------------|--7--------L--------|--L----------------|--7--------L--------|


  W                   Q.     E  E  E   Q       Q.     E  E  E   E  E   
-------------------|------------------------|-------------------------|
-------------------|------------------------|-------------------------|
-------------------|------------------------|-------------------------|
-------------------|------------------------|-------------------------|
--L----------------|---------9-----9--10----|---------9-----9--10--9--|
--L----------------|--7---------7-----------|--7---------7------------|


   Q     E  E   E  E   Q        Q     E  E   E   E  E   E     Q    E  E  E  E   Q     
----------------------------|------------------------------|-------------------------|
----------------------------|------------------------------|-------------------------|
----------------------------|------------------------------|-------------------------|
----------------------------|------------------------------|-------------------------|
------------9------9--10----|------------9------10--9------|----------9-----9--10----|
--10----10-----10-----------|--10----10-----10---------10--|--7----7-----7-----------|


  Q    E  E  E  E   E  E      Q     E  E   E  E   Q        Q     E  E   E   E  E   E   
--------------------------|----------------------------|------------------------------|
--------------------------|----------------------------|------------------------------|
--------------------------|----------------------------|------------------------------|
--------------------------|----------------------------|------------------------------|
----------9-----9--10--9--|------------9------9--10----|------------9------10--9------|
--7----7-----7------------|--10----10-----10-----------|--10----10-----10---------10--|


                                                                       W        
  Q    E   E  E   Q.         Q    E   E  E   Q    E     Q    E  E  E   Q.       
--------------------------|--------------------------|-------------------------|
--------------------------|--------------------------|-------------------------|
--------------------------|--------------------------|-------------------------|
--------------------------|--------------------------|-------------------------|
----------10-----10~------|----------12-----10-------|----------9-----10~------|
--9----9------9-----------|--9----9------9--------9--|--8----8-----8-----------|


  Q    E  E   E   Q     E     E  E  E  E  E  E  E  E     E   H.           E   
---------------------------|--------------------------|----------------------|
---------------------------|--------------------------|----------------------|
---------------------------|--------------------------|----------------------|
---------------------------|--------------------------|----------------------|
----------9~-----10~-------|--9--9--9--9--9--9--9--9--|--9\------------------|
--8----8------8---------8--|--7--7--7--7--7--7--7--7--|--7\------------------|


  Q    E  E  E  E   Q       Q    E  E  E  E   E  E      Q     E  E   E  E   Q     
-------------------------|--------------------------|----------------------------|
-------------------------|--------------------------|----------------------------|
-------------------------|--------------------------|----------------------------|
-------------------------|--------------------------|----------------------------|
----------9-----9--10----|----------9-----9--10--9--|------------9------9--10----|
--7----7-----7-----------|--7----7-----7------------|--10----10-----10-----------|


   Q     E  E   E   E  E   E     Q    E  E  E  E   Q       Q    E  E  E  E   E  E   
------------------------------|-------------------------|--------------------------|
------------------------------|-------------------------|--------------------------|
------------------------------|-------------------------|--------------------------|
------------------------------|-------------------------|--------------------------|
------------9------10--9------|----------9-----9--10----|----------9-----9--10--9--|
--10----10-----10---------10--|--7----7-----7-----------|--7----7-----7------------|


   Q     E  E   E  E   Q        Q     E  E   E   E  E   E     Q    E   E  E   Q.       
----------------------------|------------------------------|--------------------------|
----------------------------|------------------------------|--------------------------|
----------------------------|------------------------------|--------------------------|
----------------------------|------------------------------|--------------------------|
------------9------9--10----|------------9------10--9------|----------10-----10~------|
--10----10-----10-----------|--10----10-----10---------10--|--9----9------9-----------|


                                            W                                    
  Q    E   E  E   Q    E     Q    E  E  E   Q.         Q    E  E   E   Q     E   
--------------------------|-------------------------|---------------------------|
--------------------------|-------------------------|---------------------------|
--------------------------|-------------------------|---------------------------|
--------------------------|-------------------------|---------------------------|
----------12-----10-------|----------9-----10~------|----------9~-----10~-------|
--9----9------9--------9--|--8----8-----8-----------|--8----8------8---------8--|


  E  E  E  E  E  E  E  E     E   H.           E     E  E  E  Q.     E  E   
--------------------------|----------------------|------------------------|
--------------------------|----------------------|------------------------|
--------------------------|----------------------|------------------------|
--------------------------|----------------------|--9--9--7--9------9--7--|
--9--9--9--9--9--9--9--9--|--9\------------------|--7--7--5--7------7--5--|
--7--7--7--7--7--7--7--7--|--7\------------------|------------------------|


  E  E  E  Q.     E  E     E  E  E  Q.     E  E     E  E  E  Q.     E  E   
------------------------|------------------------|------------------------|
------------------------|------------------------|------------------------|
------------------------|------------------------|------------------------|
-----------7------7-----|--9--9--7--9------9--7--|------------------------|
-----9-----5------5-----|--7--7--5--7------7--5--|-----9-----5------5-----|
-----7------------------|------------------------|-----7-----3------3-----|


  E  E  E  Q.     E  E     E  E  E  Q.     E  E     E  E  E  Q.     E  E   
------------------------|------------------------|------------------------|
------------------------|------------------------|------------------------|
------------------------|------------------------|------------------------|
--9--9--7--9------9--7--|-----------7------7-----|--9--9--7--9------9--7--|
--7--7--5--7------7--5--|-----9-----5------5-----|--7--7--5--7------7--5--|
------------------------|-----7------------------|------------------------|


  E  E  E  Q    E  Q        E  E  E  Q.     E  E     E  E  E  Q.     E  E   
-------------------------|------------------------|------------------------|
-------------------------|------------------------|------------------------|
-------------------------|------------------------|------------------------|
-------------------------|--9--9--7--9------9--7--|-----------7------7-----|
-----9-----5-------------|--7--7--5--7------7--5--|-----9-----5------5-----|
-----7-----3----5--2~----|------------------------|-----7------------------|


  E  E  E  Q.     E  E     E  E  E  Q    E  E  E      E  E  E  Q.     E  E   
------------------------|--------------------------|------------------------|
------------------------|--------------------------|------------------------|
------------------------|--------------------------|------------------------|
--9--9--7--9------9--7--|--------------------------|--9--9--7--9------9--7--|
--7--7--5--7------7--5--|-----9-----5----------3~--|--7--7--5--7------7--5--|
------------------------|-----7-----3----5--3------|------------------------|


  E  E  E  Q.     E  E     E  E  E  Q.     E  E     E  E  E  Q    E  Q      
------------------------|------------------------|-------------------------|
------------------------|------------------------|-------------------------|
------------------------|------------------------|-------------------------|
-----------7------7-----|--9--9--7--9------9--7--|-------------------------|
-----9-----5------5-----|--7--7--5--7------7--5--|-----9-----5-------------|
-----7------------------|------------------------|-----7-----3----5--3\----|


  Q    E  E  E  E  E  E     E  E  E  E  E  E  E  E     Q    E  E  E  E  E  E   
-------------------------|--------------------------|-------------------------|
-------------------------|--------------------------|-------------------------|
-------------------------|--------------------------|-------------------------|
-------------------------|-----7--7--7--7--7--7--7--|----------------------7--|
-------6-----6--7--6--5--|--L--5--5--5--5--5--5--5--|-------6-----6--7--6--5--|
--4-------4--------------|--------------------------|--4-------4--------------|


  E  E  E  E  E  E  E  E     Q    E  E  E  E  E  E     E  E  E  E  E  E  E  E   
--------------------------|-------------------------|--------------------------|
--------------------------|-------------------------|--------------------------|
--------------------------|-------------------------|--------------------------|
--L--7--7--7--------------|-------------------------|-----7--7--7--7--7--7--7--|
--L--------------7--7-----|-------6-----6--7--6--5--|--L--5--5--5--5--5--5--5--|
--------------5--------5--|--4-------4--------------|--------------------------|


  Q    E  E  E  E  E  E     E  E  E  E  E  E  E  E     Q.     E  E  E   Q     
-------------------------|--------------------------|------------------------|
-------------------------|--------------------------|------------------------|
-------------------------|--------------------------|------------------------|
----------------------7--|--L--7--7--7--------------|------------------------|
-------6-----6--7--6--5--|--L--------------7--7-----|---------9-----9--10----|
--4-------4--------------|--------------5--------5--|--7---------7-----------|


  Q    E  E  E  E   E  E      Q     E  E   E  E   Q        Q     E  E   E   E  E   E   
--------------------------|----------------------------|------------------------------|
--------------------------|----------------------------|------------------------------|
--------------------------|----------------------------|------------------------------|
--------------------------|----------------------------|------------------------------|
----------9-----9--10--9--|------------9------9--10----|------------9------10--9------|
--7----7-----7------------|--10----10-----10-----------|--10----10-----10---------10--|


  Q    E  E  E  E   Q       Q    E  E  E  E   E  E      Q     E  E   E  E   Q     
-------------------------|--------------------------|----------------------------|
-------------------------|--------------------------|----------------------------|
-------------------------|--------------------------|----------------------------|
-------------------------|--------------------------|----------------------------|
----------9-----9--10----|----------9-----9--10--9--|------------9------9--10----|
--7----7-----7-----------|--7----7-----7------------|--10----10-----10-----------|


   Q     E  E   E   E  E   E     Q    E   E  E   Q.         Q    E   E  E   Q    E   
------------------------------|--------------------------|--------------------------|
------------------------------|--------------------------|--------------------------|
------------------------------|--------------------------|--------------------------|
------------------------------|--------------------------|--------------------------|
------------9------10--9------|----------10-----10~------|----------12-----10-------|
--10----10-----10---------10--|--9----9------9-----------|--9----9------9--------9--|


                 W                                                               
  Q    E  E  E   Q.         Q    E  E   E   Q     E     E  E  E  E  E  E  E  E   
-------------------------|---------------------------|--------------------------|
-------------------------|---------------------------|--------------------------|
-------------------------|---------------------------|--------------------------|
-------------------------|---------------------------|--------------------------|
----------9-----10~------|----------9~-----10~-------|--9--9--9--9--9--9--9--9--|
--8----8-----8-----------|--8----8------8---------8--|--7--7--7--7--7--7--7--7--|


  E   H.           E     E  E  E  Q.     E  E     E  E  E  Q.     E  E   
----------------------|------------------------|------------------------|
----------------------|------------------------|------------------------|
----------------------|------------------------|------------------------|
----------------------|--9--9--7--9------9--7--|-----------7------7-----|
--9\------------------|--7--7--5--7------7--5--|-----9-----5------5-----|
--7\------------------|------------------------|-----7------------------|


  E  E  E  Q.     E  E     E  E  E  Q.     E  E     E  E  E  Q.     E  E   
------------------------|------------------------|------------------------|
------------------------|------------------------|------------------------|
------------------------|------------------------|------------------------|
--9--9--7--9------9--7--|------------------------|--9--9--7--9------9--7--|
--7--7--5--7------7--5--|-----9-----5------5-----|--7--7--5--7------7--5--|
------------------------|-----7-----3------3-----|------------------------|


  E  E  E  Q.     E  E     E  E  E  Q.     E  E     E  E  E  Q    E  Q      
------------------------|------------------------|-------------------------|
------------------------|------------------------|-------------------------|
------------------------|------------------------|-------------------------|
-----------7------7-----|--9--9--7--9------9--7--|-------------------------|
-----9-----5------5-----|--7--7--5--7------7--5--|-----9-----5-------------|
-----7------------------|------------------------|-----7-----3----5--2~----|


  E  E  E  Q.     E  E     E  E  E  Q.     E  E     E  E  E  Q.     E  E   
------------------------|------------------------|------------------------|
------------------------|------------------------|------------------------|
------------------------|------------------------|------------------------|
--9--9--7--9------9--7--|-----------7------7-----|--9--9--7--9------9--7--|
--7--7--5--7------7--5--|-----9-----5------5-----|--7--7--5--7------7--5--|
------------------------|-----7------------------|------------------------|


  E  E  E  Q    E  E  E      E  E  E  Q.     E  E     E  E  E  Q.     E  E   
--------------------------|------------------------|------------------------|
--------------------------|------------------------|------------------------|
--------------------------|------------------------|------------------------|
--------------------------|--9--9--7--9------9--7--|-----------7------7-----|
-----9-----5----------3~--|--7--7--5--7------7--5--|-----9-----5------5-----|
-----7-----3----5--3------|------------------------|-----7------------------|


  E  E  E  Q.     E  E     E  E  E  Q    E  Q        Q    E  E  E  E  E  E   
------------------------|-------------------------|-------------------------|
------------------------|-------------------------|-------------------------|
------------------------|-------------------------|-------------------------|
--9--9--7--9------9--7--|-------------------------|-------------------------|
--7--7--5--7------7--5--|-----9-----5-------------|-------6-----6--7--6--5--|
------------------------|-----7-----3----5--3\----|--4-------4--------------|


  E  E  E  E  E  E  E  E     Q    E  E  E  E  E  E     E  E  E  E  E  E  E  E   
--------------------------|-------------------------|--------------------------|
--------------------------|-------------------------|--------------------------|
--------------------------|-------------------------|--------------------------|
-----7--7--7--7--7--7--7--|----------------------7--|--L--7--7--7--------------|
--L--5--5--5--5--5--5--5--|-------6-----6--7--6--5--|--L--------------7--7-----|
--------------------------|--4-------4--------------|--------------5--------5--|


  Q    E  E  E  E  E  E     E  E  E  E  E  E  E  E     Q    E  E  E  E  E  E   
-------------------------|--------------------------|-------------------------|
-------------------------|--------------------------|-------------------------|
-------------------------|--------------------------|-------------------------|
-------------------------|-----7--7--7--7--7--7--7--|----------------------7--|
-------6-----6--7--6--5--|--L--5--5--5--5--5--5--5--|-------6-----6--7--6--5--|
--4-------4--------------|--------------------------|--4-------4--------------|


  E  E  E  E  E  E  E  E     Q.     E  E  E   Q       Q    E  E  E  E   E  E   
--------------------------|------------------------|--------------------------|
--------------------------|------------------------|--------------------------|
--------------------------|------------------------|--------------------------|
--L--7--7--7--------------|------------------------|--------------------------|
--L--------------7--7-----|---------9-----9--10----|----------9-----9--10--9--|
--------------5--------5--|--7---------7-----------|--7----7-----7------------|


   Q     E  E   E  E   Q        Q     E  E   E   E  E   E     Q    E  E  E  E   Q     
----------------------------|------------------------------|-------------------------|
----------------------------|------------------------------|-------------------------|
----------------------------|------------------------------|-------------------------|
----------------------------|------------------------------|-------------------------|
------------9------9--10----|------------9------10--9------|----------9-----9--10----|
--10----10-----10-----------|--10----10-----10---------10--|--7----7-----7-----------|


  Q    E  E  E  E   E  E      Q     E  E   E  E   Q        Q     E  E   E   E  E   E   
--------------------------|----------------------------|------------------------------|
--------------------------|----------------------------|------------------------------|
--------------------------|----------------------------|------------------------------|
--------------------------|----------------------------|------------------------------|
----------9-----9--10--9--|------------9------9--10----|------------9------10--9------|
--7----7-----7------------|--10----10-----10-----------|--10----10-----10---------10--|


                                                                       W        
  Q    E   E  E   Q.         Q    E   E  E   Q    E     Q    E  E  E   Q.       
--------------------------|--------------------------|-------------------------|
--------------------------|--------------------------|-------------------------|
--------------------------|--------------------------|-------------------------|
--------------------------|--------------------------|-------------------------|
----------10-----10~------|----------12-----10-------|----------9-----10~------|
--9----9------9-----------|--9----9------9--------9--|--8----8-----8-----------|


  Q    E  E   E   Q     E     E  E  E  E  E  E  E  E     E   H.           E   
---------------------------|--------------------------|----------------------|
---------------------------|--------------------------|----------------------|
---------------------------|--------------------------|----------------------|
---------------------------|--------------------------|----------------------|
----------9~-----10~-------|--9--9--9--9--9--9--9--9--|--9\------------------|
--8----8------8---------8--|--7--7--7--7--7--7--7--7--|--7\------------------|


  PM PM      PM PM                                 PM PM      PM PM       
  E  E  Q    E  E  Q       E  E  E  Q    Q.        E  E  Q    E  E  Q     
------------------------|-----------------------|------------------------|
------------------------|-----------------------|------------------------|
------------------------|-----------------------|------------------------|
--7--7--7----7--7--7----|--5--3--2--3-----------|--7--7--7----7--7--7----|
--5--5--5----5--5--5----|----------------3------|--5--5--5----5--5--5----|
------------------------|-----------------------|------------------------|


                          PM PM      PM PM                               
  E  E  E  Q    Q.        E  E  Q    E  E  Q       E  E  E  Q    Q.      
-----------------------|------------------------|-----------------------|
-----------------------|------------------------|-----------------------|
-----------------------|------------------------|-----------------------|
--5--3--2--3-----------|--7--7--7----7--7--7----|--5--3--2--3-----------|
----------------3------|--5--5--5----5--5--5----|----------------3------|
-----------------------|------------------------|-----------------------|


  PM PM      PM PM                                  PM  PM        PM  PM        
  E  E  Q    E  E  Q       E  E  E  Q    Q.         E   E   Q     E   E   Q     
------------------------|-----------------------|------------------------------|
------------------------|-----------------------|------------------------------|
------------------------|-----------------------|------------------------------|
--7--7--7----7--7--7----|--5--3--2--3-----------|--10--10--10----10--10--10----|
--5--5--5----5--5--5----|----------------3------|---8---8---8-----8---8---8----|
------------------------|-----------------------|------------------------------|


                           PM  PM        PM  PM                                
  E  E  E  Q    Q.         E   E   Q     E   E   Q       E  E  E  Q    Q.      
-----------------------|------------------------------|-----------------------|
-----------------------|------------------------------|-----------------------|
-----------------------|------------------------------|-----------------------|
--8--6--5--6-----------|--10--10--10----10--10--10----|--8--6--5--6-----------|
----------------6------|---8---8---8-----8---8---8----|----------------6------|
-----------------------|------------------------------|-----------------------|


   PM  PM        PM  PM                                   PM  PM        PM  PM        
   E   E   Q     E   E   Q       E  E  E  Q    Q.         E   E   Q     E   E   Q     
------------------------------|-----------------------|------------------------------|
------------------------------|-----------------------|------------------------------|
------------------------------|-----------------------|------------------------------|
--10--10--10----10--10--10----|--8--6--5--6-----------|--10--10--10----10--10--10----|
---8---8---8-----8---8---8----|----------------6------|---8---8---8-----8---8---8----|
------------------------------|-----------------------|------------------------------|


                          PM PM      PM PM                               
  E  E  E  Q    Q.        E  E  Q    E  E  Q       E  E  E  Q    Q.      
-----------------------|------------------------|-----------------------|
-----------------------|------------------------|-----------------------|
-----------------------|------------------------|-----------------------|
--8--6--5--6-----------|--7--7--7----7--7--7----|--5--3--2--3-----------|
----------------6------|--5--5--5----5--5--5----|----------------3------|
-----------------------|------------------------|-----------------------|


  PM PM      PM PM                                 PM PM      PM PM       
  E  E  Q    E  E  Q       E  E  E  Q    Q.        E  E  Q    E  E  Q     
------------------------|-----------------------|------------------------|
------------------------|-----------------------|------------------------|
------------------------|-----------------------|------------------------|
--7--7--7----7--7--7----|--5--3--2--3-----------|--7--7--7----7--7--7----|
--5--5--5----5--5--5----|----------------3------|--5--5--5----5--5--5----|
------------------------|-----------------------|------------------------|


                          PM PM      PM PM                               
  E  E  E  Q    Q.        E  E  Q    E  E  Q       E  E  E  Q    Q.      
-----------------------|------------------------|-----------------------|
-----------------------|------------------------|-----------------------|
-----------------------|------------------------|-----------------------|
--5--3--2--3-----------|--7--7--7----7--7--7----|--5--3--2--3-----------|
----------------3------|--5--5--5----5--5--5----|----------------3------|
-----------------------|------------------------|-----------------------|


  E  E  E  E  Q    E  E     Q    E  E  Q     E   E     E  E  E  E  Q    E  E   
-------------------------|--------------------------|-------------------------|
-------------------------|--------------------------|-------------------------|
-------------------------|--------------------------|-------------------------|
--9--7--5-----5----5-----|--------------------------|--9--7--5-----5----5-----|
-----------9----------9--|--7----9--7--5~----5\--L--|-----------9----------9--|
-------------------------|--------------------------|-------------------------|


  Q    E  E  E  E  Q       E  E  E  E  Q    E  E     Q    E  E  Q     E   E   
------------------------|-------------------------|--------------------------|
------------------------|-------------------------|--------------------------|
------------------------|-------------------------|--------------------------|
------------------------|--9--7--5-----5----5-----|--------------------------|
--7----9--7--5--4-------|-----------9----------9--|--7----9--7--5~----5\--L--|
-------------------7----|-------------------------|--------------------------|


  E  E  E  E  Q    E  E     Q    E  E  E  E  Q       Q.     E  E  E   Q     
-------------------------|------------------------|------------------------|
-------------------------|------------------------|------------------------|
-------------------------|------------------------|------------------------|
--9--7--5-----5----5-----|------------------------|------------------------|
-----------9----------9--|--7----9--7--5--4-------|---------9-----9--10----|
-------------------------|-------------------7----|--7---------7-----------|


  Q    E  E  E  E   E  E      Q     E  E   E  E   Q        Q     E  E   E   E  E   E   
--------------------------|----------------------------|------------------------------|
--------------------------|----------------------------|------------------------------|
--------------------------|----------------------------|------------------------------|
--------------------------|----------------------------|------------------------------|
----------9-----9--10--9--|------------9------9--10----|------------9------10--9------|
--7----7-----7------------|--10----10-----10-----------|--10----10-----10---------10--|


  Q    E  E  E  E   Q       Q    E  E  E  E   E  E      Q     E  E   E  E   Q     
-------------------------|--------------------------|----------------------------|
-------------------------|--------------------------|----------------------------|
-------------------------|--------------------------|----------------------------|
-------------------------|--------------------------|----------------------------|
----------9-----9--10----|----------9-----9--10--9--|------------9------9--10----|
--7----7-----7-----------|--7----7-----7------------|--10----10-----10-----------|


   Q     E  E   E   E  E   E     Q    E   E  E   Q.         Q    E   E  E   Q    E   
------------------------------|--------------------------|--------------------------|
------------------------------|--------------------------|--------------------------|
------------------------------|--------------------------|--------------------------|
------------------------------|--------------------------|--------------------------|
------------9------10--9------|----------10-----10~------|----------12-----10-------|
--10----10-----10---------10--|--9----9------9-----------|--9----9------9--------9--|


                 W                                                               
  Q    E  E  E   Q.         Q    E  E   E   Q     E     E  E  E  E  E  E  E  E   
-------------------------|---------------------------|--------------------------|
-------------------------|---------------------------|--------------------------|
-------------------------|---------------------------|--------------------------|
-------------------------|---------------------------|--------------------------|
----------9-----10~------|----------9~-----10~-------|--9--9--9--9--9--9--9--9--|
--8----8-----8-----------|--8----8------8---------8--|--7--7--7--7--7--7--7--7--|


  E   H.           E     E  E  E  Q.     E  E     E  E  E  Q.     E  E   
----------------------|------------------------|------------------------|
----------------------|------------------------|------------------------|
----------------------|------------------------|------------------------|
----------------------|--9--9--7--9------9--7--|-----------7------7-----|
--9\------------------|--7--7--5--7------7--5--|-----9-----5------5-----|
--7\------------------|------------------------|-----7------------------|


  E  E  E  Q.     E  E     E  E  E  Q.     E  E     E  E  E  Q.     E  E   
------------------------|------------------------|------------------------|
------------------------|------------------------|------------------------|
------------------------|------------------------|------------------------|
--9--9--7--9------9--7--|------------------------|--9--9--7--9------9--7--|
--7--7--5--7------7--5--|-----9-----5------5-----|--7--7--5--7------7--5--|
------------------------|-----7-----3------3-----|------------------------|


  E  E  E  Q.     E  E     E  E  E  Q.     E  E     E  E  E  Q    E  Q      
------------------------|------------------------|-------------------------|
------------------------|------------------------|-------------------------|
------------------------|------------------------|-------------------------|
-----------7------7-----|--9--9--7--9------9--7--|-------------------------|
-----9-----5------5-----|--7--7--5--7------7--5--|-----9-----5-------------|
-----7------------------|------------------------|-----7-----3----5--2~----|


  E  E  E  Q.     E  E     E  E  E  Q.     E  E     E  E  E  Q.     E  E   
------------------------|------------------------|------------------------|
------------------------|------------------------|------------------------|
------------------------|------------------------|------------------------|
--9--9--7--9------9--7--|-----------7------7-----|--9--9--7--9------9--7--|
--7--7--5--7------7--5--|-----9-----5------5-----|--7--7--5--7------7--5--|
------------------------|-----7------------------|------------------------|


  E  E  E  Q    E  E  E      E  E  E  Q.     E  E     E  E  E  Q.     E  E   
--------------------------|------------------------|------------------------|
--------------------------|------------------------|------------------------|
--------------------------|------------------------|------------------------|
--------------------------|--9--9--7--9------9--7--|-----------7------7-----|
-----9-----5----------3~--|--7--7--5--7------7--5--|-----9-----5------5-----|
-----7-----3----5--3------|------------------------|-----7------------------|


  E  E  E  Q.     E  E     E  E  E  Q    E  Q        Q    E  E  E  E  E  E   
------------------------|-------------------------|-------------------------|
------------------------|-------------------------|-------------------------|
------------------------|-------------------------|-------------------------|
--9--9--7--9------9--7--|-------------------------|-------------------------|
--7--7--5--7------7--5--|-----9-----5-------------|-------6-----6--7--6--5--|
------------------------|-----7-----3----5--3\----|--4-------4--------------|


  E  E  E  E  E  E  E  E     Q    E  E  E  E  E  E     E  E  E  E  E  E  E  E   
--------------------------|-------------------------|--------------------------|
--------------------------|-------------------------|--------------------------|
--------------------------|-------------------------|--------------------------|
-----7--7--7--7--7--7--7--|----------------------7--|--L--7--7--7--------------|
--L--5--5--5--5--5--5--5--|-------6-----6--7--6--5--|--L--------------7--7-----|
--------------------------|--4-------4--------------|--------------5--------5--|


  Q    E  E  E  E  E  E     E  E  E  E  E  E  E  E     Q    E  E  E  E  E  E   
-------------------------|--------------------------|-------------------------|
-------------------------|--------------------------|-------------------------|
-------------------------|--------------------------|-------------------------|
-------------------------|-----7--7--7--7--7--7--7--|----------------------7--|
-------6-----6--7--6--5--|--L--5--5--5--5--5--5--5--|-------6-----6--7--6--5--|
--4-------4--------------|--------------------------|--4-------4--------------|


  E  E  E  E  E  E  E  E     Q.     E  E  E   Q       Q.     E  E  E   E  E   
--------------------------|------------------------|-------------------------|
--------------------------|------------------------|-------------------------|
--------------------------|------------------------|-------------------------|
--L--7--7--7--------------|------------------------|-------------------------|
--L--------------7--7-----|---------9-----9--10----|---------9-----9--10--9--|
--------------5--------5--|--7---------7-----------|--7---------7------------|


   Q     E  E   E  E   Q        Q     E  E   E   E  E   E     Q    E  E  E  E   Q     
----------------------------|------------------------------|-------------------------|
----------------------------|------------------------------|-------------------------|
----------------------------|------------------------------|-------------------------|
----------------------------|------------------------------|-------------------------|
------------9------9--10----|------------9------10--9------|----------9-----9--10----|
--10----10-----10-----------|--10----10-----10---------10--|--7----7-----7-----------|


  Q    E  E  E  E   E  E      Q     E  E   E  E   Q        Q     E  E   E   E  E   E   
--------------------------|----------------------------|------------------------------|
--------------------------|----------------------------|------------------------------|
--------------------------|----------------------------|------------------------------|
--------------------------|----------------------------|------------------------------|
----------9-----9--10--9--|------------9------9--10----|------------9------10--9------|
--7----7-----7------------|--10----10-----10-----------|--10----10-----10---------10--|


                                                                       W        
  Q    E   E  E   Q.         Q    E   E  E   Q    E     Q    E  E  E   Q.       
--------------------------|--------------------------|-------------------------|
--------------------------|--------------------------|-------------------------|
--------------------------|--------------------------|-------------------------|
--------------------------|--------------------------|-------------------------|
----------10-----10~------|----------12-----10-------|----------9-----10~------|
--9----9------9-----------|--9----9------9--------9--|--8----8-----8-----------|


  Q    E  E   E   Q     E     E  E  E  E  E  E  E  E     E   H.           E          
---------------------------|--------------------------|----------------------|-----||
---------------------------|--------------------------|----------------------|-----||
---------------------------|--------------------------|----------------------|-----||
---------------------------|--------------------------|----------------------|-----||
----------9~-----10~-------|--9--9--9--9--9--9--9--9--|--9\------------------|-----||
--8----8------8---------8--|--7--7--7--7--7--7--7--7--|--7\------------------|-----||




Duration Legend
---------------
W - whole
H - half
Q - quarter
E - 8th
S - 16th
T - 32nd
X - 64th
. - note dotted
|-n-|  - n-tuplets


Tablature Legend
----------------
L - tied note
x - dead note
\ -  slide into from above or out of downwards
~ - vibrato
W - wide vibrato

            
            
Suggest correction
Creating personal tab
Creating personal tab
You can edit any tab online and save it as your Personal.

You can edit, replace or remove any tab part or add personal notes – all changes will be seen only by you.

Personal tabs can be accessed anytime from any device, even offline.
Learn more »
Give kudos to tab author, rate the tab!
1 2 3 4 5
comments
print report bad tab
guest
You may want to rate the tab now too:
select rating
Wanna post a correction for this tab? Suggest correction