Oops, an error
Loading. Please wait.

Your Disposal tab

340 views 12 this week
no commentswrite comment
1 2 3 4 5
3 more votes to show rating
add to favorites
×
Save as Personal and add changes to this tab that will be seen only by you. Learn more ›
×
You can save this tab as Personal to edit and correct it or add notes. All changes will be seen only by you. Learn more »
launch autoscroll
font size
0
reset
how to read this tab
guitar tuner
edit
Autoscroll
slow
fast
+/-
esc
set tempo
stop
About this tab version
This is a full guitar version of the some. I am 90% sure this s completely accurate. Was this info helpful? Yes No
[Intro]
D#|----7"-----8"-----7"-----10"--12"--10"-----7"-----8"-----10"--12"--10"--14"--15"------|
A#|----5"-----5"-----5"-----8"---8"---8"------5"-----5"-----8"---8"---8"---12"--12"------|
F#|--------------------------------------------------------------------------------------|   (x2)
C#|--------------------------------------------------------------------------------------|
G#|--------------------------------------------------------------------------------------|
D#|--------------------------------------------------------------------------------------|

D#|--------------------------------------------------------------------------------------|
A#|--------------------------------------------------------------------------------------|
F#|--------------------------------------------------------------------------------------|
C#|--------------------------------------------------------------------------------------|
G#|--------------------------------------------------------------------------------------|
D#|----7"--------------------------5"-------------3"-------------------------------------|

D#|--------------------------------------------------------------------------------------|
A#|--------------------------------------------------------------------------------------|
F#|--------------------------------------------------------------------------------------|
C#|--------------------------------------------------------------------------------------|
G#|--------------------------------7"-------------5"-------------------------------------|
D#|----7"--------------------------5"-------------3"-------------------------------------|

[Verse]
              (No Slide 2nd Time or Second Verse)
D#|---------------------------------------------------------------------------------------|
A#|---------------------------------------------------------------------------------------|
F#|---------------------------------------------------------------------------------------|
C#|---------------------------------------------------------------------------------------|
G#|---------------------------------------------------------------------------------------|
D#|--0-0-0-3-3-0-0-0-0-0-0-0-0/12\0--0-0-0-3-3-0-0-3-3-3-3-4-4-4-4-5-5-5-7/12\0-----------|

D#|---------------------------------------------------------------------------------------|
A#|---------------------------------------------------------------------------------------|
F#|----------------------------------------------------------------6phbr------------------|
C#|---------------------------------------------------------------------------------------|
G#|--------------------------3p2----------------------------------------------------------|
D#|--0-0-0-3-3-0-0-0-0-0-3-0------0-0-0-3-3-0-0-3-3-3-3-4-4-4-4-5-------------------------|

(Ending 1 from above riff)                (Ending 2)
D#|-------------------------------|-------------------------------------------------------|
A#|-------------------------------|-------------------------------------------------------|
F#|-------------------------------|-------------------------------------------------------|
C#|-------------------------------|-------------------------------------------------------|
G#|-------------------------------|-------------------------------------------------------|
D#|--0-0-0-3-3-0-0-1-1-1-1-1-1-1--|--0-0-0-3-3-0-0----------------------------------------|

[Chorus]
D#|---------------------------------------------------------------------------------------------------------|
G#|---------------------------------------------------------------------------------------------------------|
F#|--2"--------4"----5"----9"----10"----2"--------5"----4"---7"----5"----2"--------7"----5"----4"----2"----'|
C#|--3"--------3"----3"----7"----7"-----3"--------3"----3"---9"----7"----3"--------9"----7"----5"----3"----'|
G#|---------------------------------------------------------------------------------------------------------|
D#|---------------------------------------------------------------------------------------------------------|

D#|----------------------------------------------------------------------------------------------------------|
A#|----------------------------------------------------------------------------------------------------------|
F#|--2"------------------------------------------------------------------------------------------------------|
C#|--3"------------------------------------------------------------------------------------------------------|
G#|-----------2----2-----------------------------------------------------------------------------------------|
D#|-----------0----0-----------------------------------------------------------------------------------------|

[Break]
D#|------------------3-----3----------|-------------|-----------------------|----------------------------|
A#|--------------------4-----4--------|-------------|-----------------------|----------------------------|
F#|'---------------------5-----5-----'|'-----------'|'---------------------'|----------------------------|
C#|'-----------------------------5---'|'-----------'|'---------------------'|----------------------------|
G#|----3/4-4-4-4-4-3------------------|-------------|---3/4-4-4-4-4-3- 3"---|--3/4-4-4-4-4-3-------------|
D#|-----------------------------------|--4"--3"-----|-----------------------|----------------3"----------|

[Instrumental]
D#|----7"-----8"-----7"-----10"--12"--10"-----7"-----8"-----10"--12"--10"--14"--15"------|
A#|----5"-----5"-----5"-----8"---8"---8"------5"-----5"-----8"---8"---8"---12"--12"------|
F#|--------------------------------------------------------------------------------------|   (x2)
C#|--------------------------------------------------------------------------------------|
G#|--------------------------------------------------------------------------------------|
D#|--------------------------------------------------------------------------------------|

D#|--------------------------------------------------------------------------------------|
A#|--------------------------------------------------------------------------------------|
F#|--------------------------------------------------------------------------------------|
C#|--------------------------------------------------------------------------------------|
G#|--------------------------------------------------------------------------------------|
D#|----7"--------------------------5"-------------3"-------------------------------------|

D#|--------------------------------------------------------------------------------------|
A#|--------------------------------------------------------------------------------------|
F#|--------------------------------------------------------------------------------------|
C#|--------------------------------------------------------------------------------------|
G#|--------------------------------7"-------------5"-------------------------------------|
D#|----7"--------------------------5"-------------3"-------------------------------------|

[Verse]
              (No Slide 2nd Time or Second Verse)
D#|---------------------------------------------------------------------------------------|
A#|---------------------------------------------------------------------------------------|
F#|---------------------------------------------------------------------------------------|
C#|---------------------------------------------------------------------------------------|
G#|---------------------------------------------------------------------------------------|
D#|--0-0-0-3-3-0-0-0-0-0-0-0-0/12\0--0-0-0-3-3-0-0-3-3-3-3-4-4-4-4-5-5-5-7/12\0-----------|

D#|---------------------------------------------------------------------------------------|
A#|---------------------------------------------------------------------------------------|
F#|----------------------------------------------------------------6phbr------------------|
C#|---------------------------------------------------------------------------------------|
G#|--------------------------3p2----------------------------------------------------------|
D#|--0-0-0-3-3-0-0-0-0-0-3-0------0-0-0-3-3-0-0-3-3-3-3-4-4-4-4-5-------------------------|

(Ending 1 from above riff)                (Ending 2)
D#|-------------------------------|-------------------------------------------------------|
A#|-------------------------------|-------------------------------------------------------|
F#|-------------------------------|-------------------------------------------------------|
C#|-------------------------------|-------------------------------------------------------|
G#|-------------------------------|-------------------------------------------------------|
D#|--0-0-0-3-3-0-0-1-1-1-1-1-1-1--|--0-0-0-3-3-0-0----------------------------------------|

[Chorus]
D#|---------------------------------------------------------------------------------------------------------|
G#|---------------------------------------------------------------------------------------------------------|
F#|--2"--------4"----5"----9"----10"----2"--------5"----4"---7"----5"----2"--------7"----5"----4"----2"----'|
C#|--3"--------3"----3"----7"----7"-----3"--------3"----3"---9"----7"----3"--------9"----7"----5"----3"----'|
G#|---------------------------------------------------------------------------------------------------------|
D#|---------------------------------------------------------------------------------------------------------|

D#|----------------------------------------------------------------------------------------------------------|
A#|----------------------------------------------------------------------------------------------------------|
F#|--2"------------------------------------------------------------------------------------------------------|
C#|--3"------------------------------------------------------------------------------------------------------|
G#|-----------2----2-----------------------------------------------------------------------------------------|
D#|-----------0----0-----------------------------------------------------------------------------------------|

[Break]
D#|------------------3-----3----------|-------------|-----------------------|----------------------------|
A#|--------------------4-----4--------|-------------|-----------------------|----------------------------|
F#|'---------------------5-----5-----'|'-----------'|'---------------------'|----------------------------|
C#|'-----------------------------5---'|'-----------'|'---------------------'|----------------------------|
G#|----3/4-4-4-4-4-3------------------|-------------|---3/4-4-4-4-4-3- 3"---|--3/4-4-4-4-4-3-------------|
D#|-----------------------------------|--4"--3"-----|-----------------------|----------------3"----------|



************************************

| h   Hammer-on
| p   Pull-off
| r   Release
| b   Bend
| br  Bend release
| /   Slide up
| \   Slide down
| "   Speed Pick

************************************

            
            
Suggest correction
Creating personal tab
Creating personal tab
You can edit any tab online and save it as your Personal.

You can edit, replace or remove any tab part or add personal notes – all changes will be seen only by you.

Personal tabs can be accessed anytime from any device, even offline.
Learn more »
Give kudos to tab author, rate the tab!
1 2 3 4 5
comments
print report bad tab
guest
You may want to rate the tab now too:
select rating
Wanna post a correction for this tab? Suggest correction