Oops, an error
Loading. Please wait.

Come Together tab

44 views 1 this week
no commentswrite comment
1 2 3 4 5
3 more votes to show rating
add to favorites
×
Save as Personal and add changes to this tab that will be seen only by you. Learn more ›
×
You can save this tab as Personal to edit and correct it or add notes. All changes will be seen only by you. Learn more »
launch autoscroll
font size
0
reset
how to read this tab
guitar tuner
edit
Autoscroll
slow
fast
+/-
esc
set tempo
stop
COME TOGETHER

|--------------------------|
|--------------------------|
|----------------10--------|
|--0---0---------10---12---|  INTRO
|---------10\12------------|
|--------------------------|

|--------------------|
|--------------------|
|----x-10-x-10-x-----|
|----x-10-x-10-x-----| PARTE QUE CANTA FER
|----x-8--x-8--x-----|
|--------------------|


 (no entiendo q' dice aca)   Got to be a joker he just do what he please, HEY!
|---------------------------------------------------------------------------|
|---------------------------------------------------------------------------|
|---------------------------------------------------------------------------|
|--7--7--7--7--7--7--5--5--5------------------------------------------------|
|--7--7--7--7--7--7--5--5--5------------------------------------------------|
|--5--5--5--5--5--5--3--3--3------------------------------------------------|


  come together right now           over me
|------------------------------------------|
|------------------------------0-----------|
|------------------------------0-----------|
|-9--9--9--9----7--7--7--7--5--------------|
|-9--9--9--9----7--7--7--7--5--------------|
|-7--7--7--7----5--5--5--5--3--------------|


|-----------------------------------------------------------|
|-----------------------------------------------------------|
|--10--10--10--10--10---7--5--7----10--10--10--10---7---5---|
|--10--10--10--10--10---7--5--7----10--10--10--10---7---5---|  X2
|--8---8---8---8---8----5--3--5----8---8---8---8----5---3---|
|-----------------------------------------------------------|


|-17------17--17--17b------17------17--|
|-----20---------------20------20------|
|--------------------------------------|
|--------------------------------------|
|--------------------------------------|
|--------------------------------------|
Continuacion del solo
                                                                      
|17-----17--17--17b------17------17--20b--20b---17b----------|
|---20---------------20------20-----------------------20\22--|
|------------------------------------------------------------|
|------------------------------------------------------------|
|------------------------------------------------------------|
|------------------------------------------------------------|


                             
                             
 come together  come together...
|----------------------------------|
|----------------------------------|
|7b--7--7--7--7b-7--7--7b-7--7--7--|
|7b--7--7--7--7b-7--7--7b-7--7--7--|
|5b--5--5--5--5b-5--5--5b-5--5--5--|
|----------------------------------|


SI TENES ALGUNA DUDA,COMENTARIO O ARREGLO ESCRIBIME A catupecu@

ICQ nº=94634680

            
            
Suggest correction
Creating personal tab
Creating personal tab
You can edit any tab online and save it as your Personal.

You can edit, replace or remove any tab part or add personal notes – all changes will be seen only by you.

Personal tabs can be accessed anytime from any device, even offline.
Learn more »
Give kudos to tab author, rate the tab!
1 2 3 4 5
comments
print report bad tab
guest
Wanna post a correction for this tab? Suggest correction