Oops, an error
Loading. Please wait.

Dialecto bass

34 views 1 this week
no commentswrite comment
1 2 3 4 5
3 more votes to show rating
add to favorites
×
Save as Personal and add changes to this tab that will be seen only by you. Learn more ›
×
You can save this tab as Personal to edit and correct it or add notes. All changes will be seen only by you. Learn more »
launch autoscroll
font size
0
reset
guitar tuner
edit
Autoscroll
slow
fast
+/-
esc
set tempo
stop
LA VERDAD ES Q ALGO MUY FACIL

1|-----------------------------
2|-----------------------------
3|-------5--3-333--77----------
4|--5-555------------77-7-888--


esto se podria decir q es el solo dela cancion ..
weno en realidad ce lo mismo q la guitarra


1|------------------------------------------------------------
2|--10-9----9-10-12-10-9--10-9--------------------------------
3|-------12--------------------12-10-12-10-8-7----------------  X2
4|------------------------------------------------------------

1|---------------------------------------------------------
2|-------------------------10-9---9-10-12-10-9--10....-----
3|--10-8-7-8-12-10-8-7---------12--------------------------
4|---------------------------------------------------------

Cuando tocan esta cancion en el Intimo e Interactivo usan
este arreglo durante la estrofa

1|------------------------------------------------------------
2|------------------------------------------------------------
3|------------------------------------------------------------
4|---5-5-5-5-5-5-5-5-5-5-5-5-5-5-5-5-5h17-15h17-15h17----------

la verdad nose cuantas veces
 sean la tocadas de aki arriba
pero pueden tocarlo como kieren
en mi kaso me gusta golpear mi pulgar
contra la cuerda x cada pisada

espero les sirva. dudas: luigui_23_42@

            
            
Suggest correction
Creating personal tab
Creating personal tab
You can edit any tab online and save it as your Personal.

You can edit, replace or remove any tab part or add personal notes – all changes will be seen only by you.

Personal tabs can be accessed anytime from any device, even offline.
Learn more »
Give kudos to tab author, rate the tab!
1 2 3 4 5
comments
print report bad tab
guest
Wanna post a correction for this tab? Suggest correction