Oops, an error
Loading. Please wait.

Hormigas tab

31 views 1 this week
no commentswrite comment
1 2 3 4 5
3 more votes to show rating
add to favorites
×
Save as Personal and add changes to this tab that will be seen only by you. Learn more ›
×
You can save this tab as Personal to edit and correct it or add notes. All changes will be seen only by you. Learn more »
launch autoscroll
font size
0
reset
how to read this tab
guitar tuner
edit
Autoscroll
slow
fast
+/-
esc
set tempo
stop
Intro:
                Hey,hey,hey,hey          hey,hey,hey,hey 
1---------------------------------------------------------
2---------------------------------------------------------
3--------------------------------------------------------- x2
4---------------------------------------------------------
5---------------7-7777777----------------7-7777777--------
6---7-7-7-3-5-7--------------7-7-7-3-5-7------------------

    (no se toca nada)

    Puedo ver tu sediento desierto
    ir por carreteras 
    y no ver el oasis a lo lejos.
    Una ves me quisiste partir 
    arme El rompe cabezas
    dije bien El trabalenguas
    y encontré la salida.

     (repetir intro)x2

    (no se toca nada)

    De a una a la vez
    van cayendo fichas
    y si muchas te dan
    como vienen se van
    no sabes donde apostar
    se nubla la vista

                  sueltas el timón      sin saber como vas
1-----------------------------------------------------------------
2-----------------------------------------------------------------
3-----------------------------------------------------------------
4--5-5-5---5-5-5----------5-5-5---5-5-5----------5-5-5---5-5-5----
5--5-5-5---5-5-5----------5-5-5---5-5-5----------5-5-5---5-5-5----
6--3-3-3---3-3-3----------3-3-3---3-3-3----------3-3-3---3-3-3----

   sin saber donde vas      el tiempo se cae
1-----------------------------------------------------------------
2-----------------------------------------------------------------
3-----------------------------------------------------------------
4-----------5-5-5---5-5-5---5--4-4----5--2-2----------------------
5-----------5-5-5---5-5-5---5--4-4----5--2-2----------------------
6-----------3-3-3---3-3-3---3--2-2----3--0-0----------------------

   mientras tanto, todo deprisa  y confundes el fondo del mar
1-----------------------------------------------------------------
2-----------------------------------------------------------------
3-----------------------------------------------------------------
4--5--5--5----------5--5--5--------7--7--7------------10-10-10----
5--5--5--5----------5--5--5--------7--7--7------------10-10-10----
6--3--3--3----------3--3--3--------5--5--5------------8--8--8-----

   con la superficie lunar.
1-------------------------
2-------------------------
3-------------------------
4-----5-------------------
5-----5-------------------
6-----3-------------------

Pensar con actuar
oxígeno que asfixia...
1---------------------------------------------------
2---------------------------------------------------
3---------------------------------------------------
4---------------------------------------------------
5----------7----------7-----------------------------
6--0-3-5-7----0-3-5-7-----0-3-5-7-5-3-5-3-0---------

  Se puede ver  que te ocultas, que te escondes en todos lados.
1-----------------------------------------------------------
2-----------------------------------------------------------
3-----------------------------------------------------------
4-----------------------------------------------------------
5-----------------------------------------------------------
6--0-3-5-7------0-3-5-7---------0-3-5-7-5-3-5-3-0-----------

  El tiempo es para no perder, el tiempo pasa en todos lados 
1-----------------------------------------------------------
2-----------------------------------------------------------
3-----------------------------------------------------------
4-----------------------------------------------------------
5-----------------------------------------------------------
6--0-3-5-7-5-3-7-7------------0-3-5-7-5-3-5-3-0-------------


Cualquier duda o arregle mandame un mail a pocholomatinee@

            
            
Suggest correction
Creating personal tab
Creating personal tab
You can edit any tab online and save it as your Personal.

You can edit, replace or remove any tab part or add personal notes – all changes will be seen only by you.

Personal tabs can be accessed anytime from any device, even offline.
Learn more »
Give kudos to tab author, rate the tab!
1 2 3 4 5
comments
print report bad tab
guest
Wanna post a correction for this tab? Suggest correction