Oops, an error
Loading. Please wait.

Perfectos Cromozomas tab

20 views 1 this week
no commentswrite comment
1 2 3 4 5
3 more votes to show rating
add to favorites
×
Save as Personal and add changes to this tab that will be seen only by you. Learn more ›
×
You can save this tab as Personal to edit and correct it or add notes. All changes will be seen only by you. Learn more »
launch autoscroll
font size
0
reset
how to read this tab
guitar tuner
edit
Autoscroll
slow
fast
+/-
esc
set tempo
stop
INTRO
                      (Dale con la palanca)   Nanaa,naana naanaaaaa
e:0--0------------4----------------------------------------------------------|
B:4--4---4-----4--4----4·······----------------------------------------------|
G:4--4---4--5--4-------------------------------------------------------------|
D:4--4------5---------------------------------6--6--6--6--6--6--6------------|
A:0--0----------------------------------------6--6--6--6--6--6--6------------|
E:--------------------------------------------4--4--4--4--4--4--4------------|


                           Naana,naana,naanaaaaaa
e:----------4-----------------------------------------------------------4--------------|
B:-4-----4--4----4-·····---------------------------------------4-----4--4--4-·····-----|
G:-4--5--4-----------------------------------------------------4--5--4-----------------|
D:----5--------------------6--6--6--6--6--6--6--6-----------------5--------------------|
A:-------------------------6--6--6--6--6--6--6--6--------------------------------------|
E:-------------------------4--4--4--4--4--4--4--4--------------------------------------|


     Y aunque me cueste morir y aunque...          Hay que tomar
e:------------------------------------------------------------------|
B:------------------------------------------------------------------|
G:------------------------------------------------------------------|
D:----6--6--6--6--6--6--6--6--6--6--6--6-----------4--4--4--4--4--4-|
A:----6--6--6--6--6--6--6--6--6--6--6--6-----------4--4--4--4--4--4-|
E:----4--4--4--4--4--4--4--4--4--4--4--4-----------2--2--2--2--2--2-|


    Somos enigmas para...         Para alteraaaaaaaaaaaar
e:------------------------------------------------------|
B:------------------------------------------------------|
G:------------------------------------------------------|
D:--6--6--6--6--6--6--6--6--------4--4--4--4--4--4--4--4|
A:--6--6--6--6--6--6--6--6--------4--4--4--4--4--4--4--4|
E:--4--4--4--4--4--4--4--4--------2--2--2--2--2--2--2--2|


    laru laru laru laru laro!!!              
e:----------------------------------|
B:----------------------------------|
G:----------------------------------|
D:-6--6--6--6--6--6--6--6--6--6-----|
A:-6--6--6--6--6--6--6--6--6--6-----|
E:-4--4--4--4--4--4--4--4--4--4-----|
                                                                
Tocar INTRO


La segunda parte es igual que la primera


    Y aunque este viaje de dos pasajeros va.. 
e:-----------------------------------------|
B:-----------------------------------------|
G:----------------------------4--4--4--4--4|
D:----------------------------4--4--4--4--4|
A:----------------------------2--2--2--2--2|
E:-----------------------------------------|
                             \____P.M______


   Con cierta complicidad                             torcer las vias y...
e:-----------------------------------------------------------------------------|
B:-----------------------------------------------------------------------------|
G:---4--4--4--4--4------------------------------------5--5--5--5--5------------|
D:---4--4--4--4--4-------3--3--3--3--3--3--3--/--5----5--5--5--5--5------------|
A:---2--2--2--2--2-------2--2--2--2--2--2--2--/--4----3--3--3--3--3------------|
E:-----------------------------------------------------------------------------|
   \_PM__________________________________|            \____P.M________|


   pero hoy acaaaaaaaaaa                laru laru laru laru laro!!!
e:---------------------------------------------------------------|
B:---------------------------------------------------------------|
G:--------------4--4--4--4---------------5--5--5--5--5--5--5--5--|
D:--------------4--4--4--4---------------5--5--5--5--5--5--5--5--|
A:--------------2--2--2--2---------------3--3--3--3--3--3--3--3--|
E:---------------------------------------------------------------|
              \_____P.M____| 

                                                     
FINAL

  naaana,nana,naanaaaaa!!!
e:------------------------------|
B:------------------------------|
G:-5--5--5--5--5--5--5--5--5----|
D:-5--5--5--5--5--5--5--5--5----|
A:-3--3--3--3--3--3--3--3--3----|
E:------------------------------|


SI TENES ALGUNA DUDA,COMENTARIO O ARREGLO ESCRIBIME A: catupecu@ 

ICQ nº=94634680

            
            
Suggest correction
Creating personal tab
Creating personal tab
You can edit any tab online and save it as your Personal.

You can edit, replace or remove any tab part or add personal notes – all changes will be seen only by you.

Personal tabs can be accessed anytime from any device, even offline.
Learn more »
Give kudos to tab author, rate the tab!
1 2 3 4 5
comments
print report bad tab
guest
Wanna post a correction for this tab? Suggest correction