Oops, an error
Loading. Please wait.

Puedes bass

version 1
version 1

Whole song

31 views 1 this week
no commentswrite comment
1 2 3 4 5
3 more votes to show rating
add to favorites
×
Save as Personal and add changes to this tab that will be seen only by you. Learn more ›
×
You can save this tab as Personal to edit and correct it or add notes. All changes will be seen only by you. Learn more »
launch autoscroll
font size
0
reset
guitar tuner
edit
Autoscroll
slow
fast
+/-
esc
set tempo
stop
Buenas otra vez :)
Espero que antes de criticar entiendan bien la tablatura,
y que les guste a todos.
Un saludo.

AGUANTE CATUPE LOCO Y ¡¡¡¡FUERZA GABY!!!!

Afinacion:
    G |-------------------------------------------
    D |-------------------------------------------
    A |-------------------------------------------
--> D#|--------------LA-UNICA-QUE-CAMBIA----------

 / = Slide


 G |--8---6----6--6----6-
 D |--8---6----6----6--6-
 A |--6---4----4-------4-
 D#|---------------------

   Y ALgo estallaba...   SoBRAban...   Y AHora ademas...
 G |-6----------------------6-------------6----
 D |-6----------------------6-------------6----
 A |-4----------------------4-------------4----
 D#|-------------------------------------------

   Y SOlo...  Y SE...   PerDIStes...  Esa RIsa la escondistes...
 G |-6----------6-----------6-------------6-------------6----
 D |-6----------6-----------6-------------6----------------6-
 A |-4----------4-----------4-------------4------------------
 D#|---------------------------------------------------------

 G |-------6-------
 D |----66---66-66-
 A |-44------------  x4
 D#|---------------

 G |---------------------------------
 D |---------------------------------
 A |-444444--13-13-13-13-11-11/13/11- x10
 D#|---------------------------------

   Puedes tu morir...
 G |--------------------------------------
 D |----------------------------------15--
 A |-444444--13-13-13-13-13-13-13-13------
 D#|--------------------------------------

   Desde antes...
 G |----------------------------------------------
 D |--------------------------------------------15
 A |-444444-13-13-13-13-13-13-13-11/13/11-11-11---
 D#|----------------------------------------------

   O dudar a que...
 G |--------------------------------
 D |-----------------------------15-
 A |-444444-13-13-13-13-13-11-13----
 D#|--------------------------------

   Llegaste.
 G |---------------------------------
 D |---------------------------------
 A |-444444--13-13-13-13-11-11/13/11-
 D#|---------------------------------

   Puedes llenar la pared de recuerdos...
 G |--------------------------------
 D |--------------------------------
 A |--------------------4-----------
 D#|-3333-33-3333-33-22---2-0-5-5-5-

   O empezar a brotar aunque sea en invierno...
 G |-------------------
 D |-------------------
 A |------4------------
 D#|33-22---2-0-5-5-5--

   Punteo del bajo:

 G |1-3-5-6--6/1-1-3-1--1-1-1-33--1----
 D |----------------------------4--4-4-
 A |-----------------------------------
 D#|-----------------------------------

 G |-5-6-10-11/6-6-8-1-
 D |-------------------
 A |-------------------
 D#|-------------------

Despues de ''Aprendo!''

 G |---------------------------------
 D |---------------------------------
 A |-444444-13-13-13-13-11-11/13/11-- x2
 D#|---------------------------------

   Puedes tu morir...
 G |----------------------------------------------
 D |------------------------------------------15--
 A |-444444--13-13-13-13-13-13-11/13/11-13-13-----
 D#|----------------------------------------------

   Desde antes...
 G |--------------------------------------------
 D |-----------------------------------------15-
 A |-444444-13-13-13-11-13-13-11/13/11-13-13----
 D#|--------------------------------------------

   O dudar a que...
 G |--------------------------------
 D |-----------------------------15-
 A |-444444-13-13-13-13-11-13-11----
 D#|--------------------------------

   Llegastes...
 G |---------------------------------
 D |---------------------------------
 A |-444444-13-13-13-13-11-11/13/11--
 D#|---------------------------------

   Puedes llenar la pared de recuerdos!
 G |--------------------------------------
 D |--------------------------------------
 A |-----------------------------------4--
 D#|-5555-55-5555-55--5-3-2-1-0-2-3-5-----

 G |-6----------6-----6-----6-----6--
 D |---6--------6-----6-----6-----6--
 A |-----4------4-----4-----4-----4--  FIN
 D#|---------------------------------

Ante algun comentario, duda o critica mi mail es:
faku_nw_imcr07@
Gracias y suerte

            
            
Suggest correction
Creating personal tab
Creating personal tab
You can edit any tab online and save it as your Personal.

You can edit, replace or remove any tab part or add personal notes – all changes will be seen only by you.

Personal tabs can be accessed anytime from any device, even offline.
Learn more »
Give kudos to tab author, rate the tab!
1 2 3 4 5
comments
print report bad tab
guest
Wanna post a correction for this tab? Suggest correction