Oops, an error
Loading. Please wait.

Puedes bass

version 2
version 2

Whole song

16 views 1 this week
no commentswrite comment
1 2 3 4 5
3 more votes to show rating
add to favorites
×
Save as Personal and add changes to this tab that will be seen only by you. Learn more ›
×
You can save this tab as Personal to edit and correct it or add notes. All changes will be seen only by you. Learn more »
launch autoscroll
font size
0
reset
guitar tuner
edit
Autoscroll
slow
fast
+/-
esc
set tempo
stop
bue, aca voy, este es el primer tema q saco yo solo asi q
tengan paciencia y espero q se entienda.
empiesa el bajo solo, esto suena muy bien con los 
agudos del bajo al mango:

1--8/--6(ds)-----------------------------------------
2--8/--6(ds)------------------------------------------
3--6/--4(ds)------------------------------------------
4------------------------------------------------------

aca empieza la bata, y despes empieza a cantar
 mientras el bajo hace esto:

1--6(ds)------6(ds)-----6(ds)-----6(ds)--------------------------
2--6(ds)------6(ds)-----6(ds)-----6(ds)-----------------------
3--4(ds)------4(ds)-----4(ds)-----4(ds)-----------------------
4----------------------------------------------

sigue asi y en el medio de cada ves (a veses)
 va tocando las mismas notas de forma separada
 hasta la parte: 'esa risa la escondiste...'

1---6---5/6-----------------------------------------
2---6---5/6-----------------------------------------
3---4---3/4-----------------------------------------
4---------------------------------------------

'o murió': aca deja de cantar miestras el bajo hace
esto:

1-------------------------------------------------
2------------------------------------------------
3--------5------5----5---------------------------
4-3/5-5--55-5--5-5-55------------------------

despues va esto cuando empieza bien fuerte:

1--------------------------------------------------------
2--------------------------------------------------------
3------5------5-----5/13-13-13-13-11-13-11------------
4--0-0--0--0--0-0----------------------------------------

despues va el solo de guitarra y suigue igual hasta la parte
'puedes llenar la pared de recuedos'
1--------------------------------------- 
2--------------------------------------- 
3---------------------------------------
4--4-44-4-444-44-4-44-4-444-44- 

'o empezar a brotar aunq sea en invierno'
1---------------------------------------
2--------------------------------------
3--------------------------------------
4-----6-66-6-666/9-----------------

este es el solo de bajo, de lo q no estoy seguro
es si el efecto q se siente atras es de la pedalera 
de gabriel o del teclado de macabre, pero igual es asi
y queda bien:

1---7-9-11-12(ds)--12/7-7-9-7--------
2-----------------------------------------
3---------------------------------------
4---------------------------------------

1---2-22-44-0-2-00(ds)---6--7(ds)7/11---12--7--9--2(ds)-
2-----------------------------------------
3-----------------------------------------
4-----------------------------------------

aca se frena todo y solo suigue la bata y la vos 
y apenas empiesa a decir 'puedes volverte un bello
 recuerdo...' toca esta sola nota:

1-----------------
2------------------
3----------------
4---3(ds)------------

esta nota sola , hasta q empiesa todo fuerte de nuevo:

1--------------------------------------------------------
2--------------------------------------------------------
3------5------5-----5/13-13-13-13-11-13-11------------
4--0-0--0--0--0-0----------------------------------------

sigue asi hasta: 'puedes llenar la pared de recuerdooooooos...'

1-----------------
2----------------
3----------------
4--4-44-4-444-4-44-4-444-4------

aca va el otro solo de guitarra y a la mitad del mismo, mas o 
menos a los 3:56 minutos el bajo hace esto una sola ves 
acompañando el punteo de la guitarra:

1-----------------------
2-----------------------
3--3--0-------------------
4---------1-------------

'qe estabas esperando?, siempre estando de paso, solo hablando de 
qejas, mientras todos se alejan'

1--6(ds)----------6(ds)-----------6(ds)-------------6(ds)-------------
2--6(ds)----------6(ds)-----------6(ds)-------------6(ds)------------
3--4(ds)----------4(ds)-----------4(ds)-------------4(ds)------------
4----------------------------------------------------------------------

bue, estoy segurisimo de q eso es todo, este es uno de los mejores 
temas,  ya q estoy re al pedo se lo dedico a mi primo jim q le re
 copa el tema este y es un enfermito, jejeejejejejeje, y ya q estoy,
 a pesar de q no se de q abla la letra, se la dedico
 a mi novia, jjajjjjajajaja cool ¿esto sale en la presentacion? jajajaaj
espero q salga, no sean forros ,no me lo borren.
(cocho loquitooooooooooooooooooooooo)
aguante bob esponja, eoy, arbol
carajo, cabezones, y smashing pumpkins!!!!!!! 100% antisocial
rock alternativo al palo ( haciendo mosh en la luna) a 160 cm del piso!!!

para correcciones, puteadas, confeciones, peticiones,amenazas de muerte,
conspiraciones, contactos del 3º tipo, reuniones alienigenas, etc.
 este es mi mail: el_teta69@
aguante catupe!!!!!!!!!!!!!100% alterno

            
            
Suggest correction
Creating personal tab
Creating personal tab
You can edit any tab online and save it as your Personal.

You can edit, replace or remove any tab part or add personal notes – all changes will be seen only by you.

Personal tabs can be accessed anytime from any device, even offline.
Learn more »
Give kudos to tab author, rate the tab!
1 2 3 4 5
comments
print report bad tab
guest
Wanna post a correction for this tab? Suggest correction