Oops, an error
Loading. Please wait.

Testigo Criminal tab

18 views 1 this week
no commentswrite comment
1 2 3 4 5
3 more votes to show rating
add to favorites
×
Save as Personal and add changes to this tab that will be seen only by you. Learn more ›
×
You can save this tab as Personal to edit and correct it or add notes. All changes will be seen only by you. Learn more »
launch autoscroll
font size
0
reset
how to read this tab
guitar tuner
edit
Autoscroll
slow
fast
+/-
esc
set tempo
stop
(INTRO)
e|--------------|---------------------------------|
B|--------------|---------------------------------|
G|--------------|---------------------------------|
D|--------------|-3-3-3-3-3-3-3-3-3-3-3-3-3-3-3-3-|
A|--------------|-3-3-3-3-3-3-3-3-3-3-3-3-3-3-3-3-|
E|--------------|-1-1-1-1-1-1-1-1-1-1-1-1-1-1-1-1-|


  VOS, QUE VAS A HACER DE VOS? TESTIGO CRIMINAL...
e|---------------------------------|---------------------------------|
B|---------------------------------|---------------------------------|
G|---------------------------------|---------------------------------|
D|-3-3-3-3-3-3-3-3-3-3-3-3-3-3-3-3-|-3-3-3-3-3-3-3-3-3-3-3-3-3-3-3-3-|
A|-3-3-3-3-3-3-3-3-3-3-3-3-3-3-3-3-|-3-3-3-3-3-3-3-3-3-3-3-3-3-3-3-3-|
E|-1-1-1-1-1-1-1-1-1-1-1-1-1-1-1-1-|-1-1-1-1-1-1-1-1-1-1-1-1-1-1-1-1-|


   VOS, SI TE ACORDAS, QUE HABLAS? MIRA, ESCUCHA Y GRITA...
e|---------------------------------|---------------------------------|
B|---------------------------------|---------------------------------|
G|---------------------------------|---------------------------------|
D|-3-3-3-3-3-3-3-3-3-3-3-3-3-3-3-3-|-3-3-3-3-3-3-3-3-3-3-3-3-3-3-3-3-|
A|-3-3-3-3-3-3-3-3-3-3-3-3-3-3-3-3-|-3-3-3-3-3-3-3-3-3-3-3-3-3-3-3-3-|
E|-1-1-1-1-1-1-1-1-1-1-1-1-1-1-1-1-|-1-1-1-1-1-1-1-1-1-1-1-1-1-1-1-1-|


(SOLO 1 - MIN 0:31)
e|-------------------------------|-------------------------------|
B|-------------------------------|-------------------------------|
G|-2-----------------------------|-2-----------------------------| x2
D|-3-----------------------------|-3-----------------------------|
A|-3-----------------------------|-3-----------------------------|
E|-1(ds)-------------------------|-1(ds)-------------------------|

e|-20----18----17----------17-18-17-17----20------------------20-|
B|-------------------17-18-------------------17-18---------------|
G|---------------------------------------------------------------|
D|-------------------------------------------------15-15-15------|
A|---------------------------------------------------------------|
E|---------------------------------------------------------------|

e|-20----------17----14---------------------20~------------------|
B|-------17-18-----------15-14-----------------------------------|
G|---------------------------------------------------------------|
D|--------------------------------3----7-------------------------|
A|--------------------------------3----7-------------------------|
E|--------------------------------1----5-------------------------|

e|-------------------------------|-------------------------------|
B|-------------------------------|-------------------------------|
G|-2-----------------------------|-2-----------------------------| x2
D|-3-----------------------------|-3-----------------------------|
A|-3-----------------------------|-3-----------------------------|
E|-1(ds)-------------------------|-1(ds)-------------------------|


   MUERTO EN TU VIDA, TESTIGO CRIMINAL...(x2)
e|-------------------------------|-------------------------------|
B|-------------------------------|-------------------------------|
G|-2-----------------------------|-2-----------------------------| x4
D|-3-----------------------------|-3-----------------------------|
A|-3-----------------------------|-3-----------------------------|
E|-1(ds)-------------------------|-1(ds)-------------------------|


(SOLO 2 - MIN 2:14)
e|-------------------------------------------------------------------|
B|-------------------------------------------------------------------|
G|-------------------------------------------------------------------|
D|-3-x-3---3-x-3s7---3-x-3---3-x-3---3-x-3---3-x-3---3-x-3---3-3-3-3-|
A|-3-x-3---3-x-3s7---3-x-3---3-x-3---3-x-3---3-x-3---3-x-3---3-3-3-3-|
E|-1-x-1---1-x-1s5---1-x-1---1-x-1---1-x-1---1-x-1---1-x-1---1-1-1-1-|


   MUERTO EN TU VIDA, LA TUYA VIDA SIGUE IGUAL...
e|--------------------------------------------------------------------|
B|--------------------------------------------------------------------|
G|--------------------------------------------------------------------|
D|--------------------------------------------------------------------|
A|--------------------------------------------------------------------|
E|--------------------------------------------------------------------|


   SIGA EN LISTA DE ESPERA, ALGUNA VEZ LE VA A TOCAR...                YO NO ESPERO NADA, YAHOO!
e|---------------------------------|---------------------------------|---------------------------------|
B|---------------------------------|---------------------------------|---------------------------------|
G|---------------------------------|---------------------------------|---------------------------------|
D|-3-3-3-3-3-3-3-3-3-3-3-3-3-3-3-3-|-3-3-3-3-3-3-3-3-3-3-3-3-3-3-3-3-|---------------------------------|
A|-3-3-3-3-3-3-3-3-3-3-3-3-3-3-3-3-|-3-3-3-3-3-3-3-3-3-3-3-3-3-3-3-3-|---------------------------------|
E|-1-1-1-1-1-1-1-1-1-1-1-1-1-1-1-1-|-1-1-1-1-1-1-1-1-1-1-1-1-1-1-1-1-|---------------------------------|


   MUERTO EN TU VIDA, LA TUYA VIDA SIGUE IGUAL...
e|---------------------------------|---------------------------------|
B|---------------------------------|---------------------------------|
G|---------------------------------|---------------------------------|
D|-3-3-3-3-3-3-3-3-3-3-3-3-3-3-3-3-|-3-3-3-3-3-3-3-3-3-3-3-3-3-3-3-3-|
A|-3-3-3-3-3-3-3-3-3-3-3-3-3-3-3-3-|-3-3-3-3-3-3-3-3-3-3-3-3-3-3-3-3-|
E|-1-1-1-1-1-1-1-1-1-1-1-1-1-1-1-1-|-1-1-1-1-1-1-1-1-1-1-1-1-1-1-1-1-|


   SIGA EN LISTA DE ESPERA, ALGUNA VEZ LE VA A TOCAR...                YO NO ESPERO NADA, YAHOO!
e|---------------------------------|---------------------------------|---------------------------------|
B|---------------------------------|---------------------------------|---------------------------------|
G|---------------------------------|---------------------------------|---------------------------------|
D|-3-3-3-3-3-3-3-3-3-3-3-3-3-3-3-3-|-3-3-3-3-3-3-3-3-3-3-3-3-3-3-3-3-|---------------------------------|
A|-3-3-3-3-3-3-3-3-3-3-3-3-3-3-3-3-|-3-3-3-3-3-3-3-3-3-3-3-3-3-3-3-3-|---------------------------------|
E|-1-1-1-1-1-1-1-1-1-1-1-1-1-1-1-1-|-1-1-1-1-1-1-1-1-1-1-1-1-1-1-1-1-|---------------------------------|


(FINAL)
e|---------------------------------||
B|---------------------------------||
G|--2------------------------------||
D|--3------------------------------||
A|--3------------------------------||
E|--1(ds)--------------------------||


BUENO Y ACA TIENEN EL TEMA COMPLETO, PARECE LARGO PERO REPITE MUCHO.
NOTA:   s = SLIDE
        ~ = DISTORCION
     (ds) = DEJAR SONANDO

            
            
Suggest correction
Creating personal tab
Creating personal tab
You can edit any tab online and save it as your Personal.

You can edit, replace or remove any tab part or add personal notes – all changes will be seen only by you.

Personal tabs can be accessed anytime from any device, even offline.
Learn more »
Give kudos to tab author, rate the tab!
1 2 3 4 5
comments
print report bad tab
guest
Wanna post a correction for this tab? Suggest correction