Oops, an error
Loading. Please wait.

Teach Me How To Dance With You tab

by Causes
1,125 views 9 this week
no commentswrite comment
1 2 3 4 5
1 last vote to show rating
add to favorites
×
Save as Personal and add changes to this tab that will be seen only by you. Learn more ›
×
You can save this tab as Personal to edit and correct it or add notes. All changes will be seen only by you. Learn more »
launch autoscroll
font size
0
reset
how to read this tab
guitar tuner
edit
Autoscroll
slow
fast
+/-
esc
set tempo
stop
Author
Difficulty
-------------------------------------------------------------------------------
                      TEACH ME HOW TO DANCE - Causes
-------------------------------------------------------------------------------
Tabbed by: TukkerxD
Tuning: standard

In this tab i will give you the three best ways to play this song.

first one, without capo.
very easy too play

its a Bm chord all the time (x24432)

e|----------2----------------------------------|
B|-------------3-------------------------------|
G|---4----------------2--4-4----(2)--(4)-(4)---|
D|---------------------------------------------|
A|---------------------------------------------|
E|---------------------------------------------|

just repeat this all the time.


second one, without capo
much harder then the first one.

Same song, but with more chords wich makes the sound much better.

e|---------------------------------------------|
B|----------7--3-------------------------------|
G|---4----------------2--4-4----(2)--(4)-(4)---|
D|----------7--4-------------------------------|
A|---5------5--2------4--5-5----(4)--(5)-(5)---|
E|---3----------------2--3-3----(2)--(3)-(3)---|

the same chords can also be played in a different way like this.
It's up too you wich one you think is better.

e|----------2----------------------------------|
B|-------------3-------------------------------|
G|---4------2---------2--4-4----(2)--(4)-(4)---|
D|---0------0--4---------0-0---------(0)-(0)---|
A|-------------2------4---------(4)------------|
E|---3----------------2--3-3----(2)--(3)-(3)---|

just repeat one of the above all the time.


third one, i figured that you can play all the chords with capo on second 2 fret.
wich makes it much easier too play and the sound is still great.

2'fret
 |  |  e|----------0----------------------------------|
 |  |  B|-------------1-------------------------------|
 |  |  G|---2------0---------0--2-2----(0)--(2)-(2)---|
 |  |  D|-------------2-------------------------------|
 |  |  A|---3------3--0------2--3-3----(2)--(3)-(3)---|
 |  |  E|---1----------------0--1-1----(0)--(1)-(1)---|

and of course reapeat this all the time.

            
            
Suggest correction
Creating personal tab
Creating personal tab
You can edit any tab online and save it as your Personal.

You can edit, replace or remove any tab part or add personal notes – all changes will be seen only by you.

Personal tabs can be accessed anytime from any device, even offline.
Learn more »
Give kudos to tab author, rate the tab!
1 2 3 4 5
comments
print report bad tab
guest
You may want to rate the tab now too:
select rating
Wanna post a correction for this tab? Suggest correction