Oops, an error
Loading. Please wait.

Walk On Water tab

by Causes
1,106 views 6 this week
7 commentsread comments
1 2 3 4 5
x 4
add to favorites
×
Save as Personal and add changes to this tab that will be seen only by you. Learn more ›
×
You can save this tab as Personal to edit and correct it or add notes. All changes will be seen only by you. Learn more »
launch autoscroll
font size
0
reset
how to read this tab
guitar tuner
edit
Autoscroll
slow
fast
+/-
esc
set tempo
stop
Author
Difficulty
-------------------------------------------------------------------------------
                             WALK ON WATER - Causes
-------------------------------------------------------------------------------
Tabbed by: TukkerxD
Tuning:    standard
no capo.

Let's start easy with the easiest way to play the song.

e|-------------------------------------|
B|--------------------6---------6--5---|
G|---2------5--7---------3-------------|
D|-------------------------------------|
A|-------------------------------------|
E|-------------------------------------|

If you think it is still a little hard, maybe this is even easier.

e|--------------------1---------1--0---|
B|----------1--3-----------------------|
G|---2-------------------3-------------|
D|-------------------------------------|
A|-------------------------------------|
E|-------------------------------------|

The sound in the easy version of the song is not that good though.
With full chords it's much better, but also harder.

e|-------------------------------------|
B|--------------------6---------6--5---|
G|---2------5--7---------3-------------|
D|--------------------7---------7--5---|
A|---3------7--8------5--5------5--3---|
E|---1------5--6---------3-------------|

now I think this tab is pretty hard, so if figured another way to play the chords.
Its a lot easier and the sound is still great.

e|--------------------1---------1--0---|
B|----------1--3-----------------------|
G|---2----------------2--3------2--0---|
D|----------2--3------0--0------0------|
A|---3------0--1-------------------3---|
E|---1-------------------3-------------|

Just repeat the tab all the time and thats the whole song.


use wathever tab you think is the best!

            
            
Suggest correction
Creating personal tab
Creating personal tab
You can edit any tab online and save it as your Personal.

You can edit, replace or remove any tab part or add personal notes – all changes will be seen only by you.

Personal tabs can be accessed anytime from any device, even offline.
Learn more »
comments
print report bad tab
7 comments total. Showing first comments.
+1 reply
yoelkoster 20 Apr 01, 2016 06:22 AM

Nice tab, thanks!

+1 reply
yoelkoster 20 Apr 01, 2016 06:24 AM

Fellow Tukker by the way :)

0 reply
yoelkoster 20 Apr 01, 2016 06:24 AM

Fellow Tukker by the way :)

guest
You may want to rate the tab now too:
select rating
Wanna post a correction for this tab? Suggest correction