Oops, an error
Loading. Please wait.

Killing Me bass

832 views 1 this week
no commentswrite comment
1 2 3 4 5
3 more votes to show rating
add to favorites
×
Save as Personal and add changes to this tab that will be seen only by you. Learn more ›
×
You can save this tab as Personal to edit and correct it or add notes. All changes will be seen only by you. Learn more »
launch autoscroll
font size
0
reset
guitar tuner
edit
Autoscroll
slow
fast
+/-
esc
set tempo
stop
Author
Tuned half step down

Intro: let ring (just hold your fingers at an E5 (VII) chord then slide up to an A5 (XII))

Pt.1
Gb|---8-9r8-8----8-9r8-------13-14r13--13--|
Db|--9-----9----9-----9----14--------14----|
Ab|-7----------7---------12----------------|
Eb|----------------------------------------|

Pt.2
Gb|---------------------------------|
Db|---------------------------------|
Ab|-4-4-4-0-0-0-------2-2-2-0-0-2-2-|
Eb|-------------0-0-0---------------|

Verse: I'm too lazy to tab the second phrase out exactly, just play around on the D 
or anything in that major pentatonic

Gb|-------------|---------------------|
Db|-------------|---1-2---4-2-1h2-----|
Ab|-4-0---2-0-2-|-4-----2---------0-2-|
Eb|-----0-------|---------------------|

Chorus:

   Pt.1    Pt.2
Gb|-------|---|
Db|-------|---|
Ab|---4-2-|-0-|
Eb|-0-----|---|

Verse

Chorus

Sub Pt. 2 for Pt.3:
Gb|-------------------|
Db|-------------------|
Ab|-0-4-4-4-2-2-2-2-0-|
Eb|-------------------|

Intro Pt. 2

Bridge:

Db|-----------|
Gb|-----------|
Ab|-----2-s14-|
Eb|-2-4-------|

Chorus (All)

Intro Pt. 2
Intro Pt. 1

Pretty easy, the only challenging thing could be maintaining finger positions during the 
Intro Pt. 1

            
            
Suggest correction
Creating personal tab
Creating personal tab
You can edit any tab online and save it as your Personal.

You can edit, replace or remove any tab part or add personal notes – all changes will be seen only by you.

Personal tabs can be accessed anytime from any device, even offline.
Learn more »
Give kudos to tab author, rate the tab!
1 2 3 4 5
comments
print report bad tab
guest
You may want to rate the tab now too:
select rating
Wanna post a correction for this tab? Suggest correction