Oops, an error
Loading. Please wait.

Shooting Stars tab

version 2
version 2

Whole song

1,129 views 3 this week
no commentswrite comment
1 2 3 4 5
3 more votes to show rating
add to favorites
×
Save as Personal and add changes to this tab that will be seen only by you. Learn more ›
×
You can save this tab as Personal to edit and correct it or add notes. All changes will be seen only by you. Learn more »
launch autoscroll
font size
0
reset
how to read this tab
guitar tuner
edit
Autoscroll
slow
fast
+/-
esc
set tempo
stop
Author
Difficulty
Artist: Cauterize
Song: Shooing Stars
Album: So Far From Real
Tuning: Flat Eb

Legend:
       . - palm mute
       x
       x - scratch
       x
       * - harmonic
       h - hammer on
       p - pull off

--------------------------------------------------------------------------------
Guitar One
--------------------------------------------------------------------------------

Intro Part 1 - (X2)
eb|-----------------|
  |-----------------|
  |-7~--------------|
  |-7~--5~--2~--5~--|
  |-5~--5~--2~--5~--|
Eb|-----3~--0~--3~--|

Intro Part 2 - strum the chords in Intro Part 1 (1X)


Verse - "I know it's been a long time..." (X2)
eb|----------------------------------------------------------------------------|
  |----------------------------------------------------------------------------|
  |-7---12-11-12-11--11-11--12-11-12-11--11-11--12-11-12-11-----12p11----11-12-|
  |-x---12-12-12-12--12-12--12-12-12-12--12-12--12-12-12-12--12-------12-12-12-|
  |-5/-------------------------------------------------------------------------|
Eb|----------------------------------------------------------------------------|
PM                   .                   .


Pre-Chorus - "I don't know if I can make it..." strumming not defined (X2)
eb|-----------------|
  |-----------------|
  |-4>--------------|
  |-4>--7>--5>--7>--|
  |-2>--7>--5>--7>--|
Eb|-----5>--3>--5>--|


Chorus - "Like shooting starts..."   "breaking the promises we made."
eb|--------------------------------|------------------|
  |--------------------------------|------------------|
  |-12121212-111111-999------------|-22-44-66-777-99x-|
  |-x-x-x-x--x-x-x--xxx-(x3)-------|-22-44-66-777-99x-|
  |-10101010-9-9-9--777------------|-00/22/44/555/77x-|
Eb|--------------------------------|------------------|


Chorus Cont.                        then strum these chords. (X2)
eb|--------------------------------|---------------------|
  |--------------------------------|---------------------|
  |--77x---------------------------|-7>------------------|
  |--77x--55x--22x--555x-777x-(X2)-|-7>--5>--2>--5>--7>--|
  |--55x--55x--22x--555x-777x------|-5>--5>--2>--5>--7>--|
Eb|------033x-000x-0333x-555x------|-----3>--0>--3>--5>--|
PM       .   .     .


Repeat Intro Part 2
Repeat Verse
Repeat Pre-Chorus

Bridge
eb|------------------------------------------------------------|
  |------------------------------------------------------------|
  |-777~--777~--------------777xx7~--777xx7~-------------------|
  |-777~--777~--555~--555~--777xx7~--777xx7~--555xx5~--555xx5~-|
  |-555~--555~--555~--555~--555xx5~--555xx5~--555xx5~--555xx5~-|
Eb|-------------333~--333~--------------------333xx3~--333xx3~-|

Bridge Cont. - "When I have gone..." (X2)
eb|-------------------------|
  |----------------------3~-|
  |------7~------7~---------|
  |---7~------7~------5~----|
  |-------------------------|
Eb|-7~------5~------3~------|

Bridge Cont.
eb|----------------------------------------|
  |----------------------------------------|
  |-444-4-4-4~-----------------------------|
  |-444-4-4-4~--777-7-7-7~--555-5-5-5~--7>-|
  |-222-2-2-2~--777-7-7-7~--555-5-5-5~--7>-|
Eb|-------------555-5-5-5~--333-3-3-3~--5>-|

Repeat Chorus

Ending of Chorus
eb|-----------------------------------------------|
  |-----------------------------------------------|
  |--7>------------------7>----------444----------|
  |--7>--5>--2>--5>--7>--7>--5>--2>--444--777--5~-|
  |--5>--5>--2>--5>--7>--5>--5>--2>--222--777--5~-|
Eb|------3>--0>--3>--5>------3>--0>-------555--3~-|

There you have it. Enjoy :)

            
            
Suggest correction
Creating personal tab
Creating personal tab
You can edit any tab online and save it as your Personal.

You can edit, replace or remove any tab part or add personal notes – all changes will be seen only by you.

Personal tabs can be accessed anytime from any device, even offline.
Learn more »
Give kudos to tab author, rate the tab!
1 2 3 4 5
comments
print report bad tab
guest
You may want to rate the tab now too:
select rating
Wanna post a correction for this tab? Suggest correction