Oops, an error
Loading. Please wait.

Champagne guitar pro

by Cavo
5,043 views 3 this week
3 commentsread comments
1 2 3 4 5
x 3
add to favorites
guitar tuner
Autoscroll
slow
fast
+/-
esc
set tempo
stop
"Champagne"
demo version
Play now

or get full version for Free

×
Get full version now!
Learn and play this song
in Tab Pro
Try for free

or get $10 off Welcome Bonus

Get welcome bonus
Get access to Tab Pro version of “Champagne”!
Tab Pro is a premium guitar tab service, available on PC, Mac, iOS and Android
TRY FOR FREE
To download “Champagne” Guitar Pro tab click button below
Please note that you must have Guitar Pro software installed on your
computer in order to view this file.
Suggest correction
Give kudos to tab author, rate the tab!
1 2 3 4 5
comments
report bad tab
3 comments total.
0 reply
glade8316 166 Sep 22, 2009 07:58 PM

could someone please tab this song out for just regular tabs, i dont have the setup for guitar pro and i hella want to learn this song thank you, i just seen them last night in concert, this song rocked

0 reply
jmeyer1980 197 Oct 04, 2009 03:05 PM

This is close... really close. But it is missing the lead/solo guitar at the very end.

also... this should be correct.

D#||-------|-------|--0----------------|--0-------------------|
A#||-------|-------|--0----------------|------0---------------|
F#||-------|-------|--3----------------|----------3----L------|
C#||-------|-------|--4----------------|----------------------|
G#||-------|-------|-------------------|----------------------|
D#||-------|-------|-------------------|----------------------|

--0----------------|--0--------------------|--0----------------|
--0----------------|------0----------------|--0----------------|
--3----------------|-------------3---------|--3----------------|
--4----------------|----------4------------|--4----------------|
-------------------|-----------------------|-------------------|
-------------------|-----------------------|-------------------|

0 reply
BrutalSacrifice 20 Jul 26, 2011 01:57 AM

The Tabs good. But i can easily here the bass being more technical and more notes in the song. (The one i have anyway). Little bass fills and stuff.

guest
You may want to rate the tab now too:
select rating