Oops, an error
Loading. Please wait.

Fuck You bass

version 1
version 1

Whole song

Interactive

99,740 views 24 this week
4 commentsread comments
1 2 3 4 5
x 18
add to favorites
×
Save as Personal and add changes to this tab that will be seen only by you. Learn more ›
×
You can save this tab as Personal to edit and correct it or add notes. All changes will be seen only by you. Learn more »
launch autoscroll
font size
0
reset
guitar tuner
backing track
0:00
0:00
edit
Autoscroll
slow
fast
+/-
esc
set tempo
stop
Author
Difficulty
-----------------------------------------------------------------------------
			     F*** YOU - Cee Lo Green
-----------------------------------------------------------------------------

Tabbed By : Rock_Rebel
Tuning: Standard

I included the chords, if you want to improv. or anything :)

Verse and Chorus is nice and simple, just this pattern repeated over and over

       C      D7        F        C
G|--------------------------------------------------------------------------|
D|--------------------------------------------------------------------------|
A|-----3-------5----5-7-8----8-10-------------------------------------------|
E|-3-5-----3-5--------------------8-----------------------------------------|

The bridge is where it gets serious
   
     Em              Am              Dm            G
G|-------9-----------------------------------------------------------------|
D|-----9----9-------------7-------------5h7-- 5h7----------5---------------|
A|-5/7---------7-x------7---7----7-6-5----------------5/7------------5-6---|
E|------------------0/5-------5---------------------3----------------------|
   
   Em             Am                     Dm                       G
G|-----9-------------------------------------------------9-10-11-----------|
D|---9---9---------7-----9----10----11----------7--------------------------|
A|-7-------7x-------------------------------8/9----9/12--------------------|
E|--------------05----07---08----09------10-----------------------3--------|

   /unsure of chords for this section/
G|-------------------------------------------------------------------------|
D|---------------------------------7----7--10-9-7--------------------------|
A|-5/--------8/---------10/-----10---10---------------------------8/--10/--|
E|----------------------------------------------------5-7-8-9-10/----------|
  
    G
G|--------------------------------------------------------------------------|
D|--------------------------------------------------------------------------|
A|--------------------------------------------------------------------------|
E|-3-3-3-3-3-3-3-3----------------------------------------------------------|

Enjoy :)

| /  slide up
| \  slide down
| h  hammer-on
| p  pull-off
| ~  vibrato
| +  harmonic
| x  Mute note

            
            
Suggest correction
Creating personal tab
Creating personal tab
You can edit any tab online and save it as your Personal.

You can edit, replace or remove any tab part or add personal notes – all changes will be seen only by you.

Personal tabs can be accessed anytime from any device, even offline.
Learn more »
comments
print report bad tab
4 comments total. Showing first comments.
0 reply
rsmalley2009 52 Nov 18, 2010 08:43 AM

Great tab! The bridge is so fun when you get it.

0 reply
Jimmy_SparX 10 Jan 15, 2011 01:38 PM

Sweet tab man, thanks.

0 reply
solerohead 30 Feb 09, 2011 02:23 AM

Mostly good, the two fills are wrong though. Also I would say make use of all your strings as well, noone wants to play a groove like that all the way along the E string. Re think those fills, because they are really sweet licks when you get them down. Cheers

guest
You may want to rate the tab now too:
select rating
Wanna post a correction for this tab? Suggest correction