Oops, an error
Loading. Please wait.

Cumbia Poder bass

version 1
version 1

Whole song

2,611 views 6 this week
no commentswrite comment
1 2 3 4 5
3 more votes to show rating
add to favorites
×
Save as Personal and add changes to this tab that will be seen only by you. Learn more ›
×
You can save this tab as Personal to edit and correct it or add notes. All changes will be seen only by you. Learn more »
launch autoscroll
font size
0
reset
guitar tuner
edit
Autoscroll
slow
fast
+/-
esc
set tempo
stop
Author
Difficulty
*you have to hear the song and get into the cumbia vibe //
tienes que escuchar la canción y entrar en el sonido de la cumbia

Artist: Celso Piña (con el Gran Silencio)
Album: Barrio Bravo
Genre: Cumbia


Start / empieza  00:15

G------------------------9-7-------------------------|
D---------------------------9-7-5--------------------|
A-7--7--7--7--7--7-----------------7--7--7--7--------|x4
E--7--7--7--7--7--------------------7--7--7----------|



Verso/Verse                 Coro/chorus

G--------------------------------------------------|
D--------------------------------------------------|
A-5--5--5-7--7--7-----5--5--5-5-7--7--7--7---------|
E--5--5----7--7--7-----5--5--5----7--7--7----------|


G--------9-7---------------------------------------|
D----5-7-------------------------------------------|
A-77-----------5-7--7--7--7------------------------|
E------------5-----7--7--7-------------------------|


this part is "instrumental" /  esta parte va sola

G-----------------------7\9-9-------------------------------|
D-----------------------------------------------------------|
A-7\1-----------7---7----------x4------7--5--7----7--5--7---|
E-----------------7-----------------------------------------|


Chuntaro Style / Gran Silencio

G----------------------------------|
D-------7-7-7--------------7-7-----|
A-5-5-5------- x4----5--5----------|x8
E----------------------------------|


Chorus & Verse again  / verso y coro de nuevo

G---------------------------9-7-------------------|
D-----------------------5-7-----------------------|
A-7--7--7--7-------7-7-------------5-7--7--7--7---|x2
E--7--7--7--7--------------------5-----7--7--7----|


Bass Solo  / solo de Bajo

G---------7\9-7-------7\9-9--7\9-9-------|
D---5-7-9------9-7-5---------------------|
A-7-----------------7------7-------------|   x2
E----------------------------------------|

Repeat the verse / repite hasta que acabe

G----------------------|
D----------------------|
A-7-7-7-7--5-5-5-5-5---|
E--7-7-7-7-------------|



y eso es todo / That's All....


here is the Link UG team:

He doesn't have an official Page but here is his record label
http://www.latunarecords.com/records

here is his Facebook page
http://www.facebook.com/celso.pina

and LastFM Profile
http://www.lastfm.es/music/Celso+Pi%C3%B1a

            
            
Suggest correction
Creating personal tab
Creating personal tab
You can edit any tab online and save it as your Personal.

You can edit, replace or remove any tab part or add personal notes – all changes will be seen only by you.

Personal tabs can be accessed anytime from any device, even offline.
Learn more »
Give kudos to tab author, rate the tab!
1 2 3 4 5
comments
print report bad tab
guest
You may want to rate the tab now too:
select rating
Wanna post a correction for this tab? Suggest correction