Oops, an error
Loading. Please wait.

The Hearth Beneath tab

802 views 1 this week
2 commentsread comments
1 2 3 4 5
1 last vote to show rating
add to favorites
×
Save as Personal and add changes to this tab that will be seen only by you. Learn more ›
×
You can save this tab as Personal to edit and correct it or add notes. All changes will be seen only by you. Learn more »
launch autoscroll
font size
0
reset
how to read this tab
guitar tuner
edit
Autoscroll
slow
fast
+/-
esc
set tempo
stop
            Celtic Frost
        - The Heart Beneath -
           Vanity/Nemesis
 
          tabbed by PelzR
       correction by valve228

A basic tab for the rythm. guitar for "The Heart Beneath" by Celtic Frost.
Sorry, no solos. 

Tuning: Standard E (E A D G B E)


Description:
------------
.  -> palm mute
~  -> vibrato
() -> let ring
/  -> slide up


Riff Section:
-------------

Intro A/Outro A

E|-----------------|---------
B|-----------------|---------
G|-----------------|--------- ... play as long as needed
D|-----------------|---------
A|-2-2-2-2-2-2-2-2-|-2-2-2-2-
E|-0-0-0-0-0-0-0-0-|-0-0-0-0-
   . . . . . . . .   . . . .
                

Intro B/ Outro B

E|----------------|---------------|----------------|----------|
B|----------------|---------------|----------------|----------|
G|----------------|---------------|----------------|----------|
D|----------------|---------------|----------------|----------|
A|-2--2-2-2-2-2-2-|-3/4---5/6---8-|-7--7-7-7-7-7-7-|---6----5-|
E|-0--0-0-0-0-0-0-|-1/2-0-3/4-0-6-|-5--5-5-5-5-5-5-|-0-4--0-3-|
      . . . . . .       .     .        . . . . . .   .    .
    
Verse 

E|-----------------|-----------------|-----------------|------------|
B|-----------------|-----------------|-----------------|------------|
G|-----------------|-----------------|-----------------|------------|
D|-----------------|-----------------|-----------------|------------|
A|-7-------6-----5-|---------4/5-4/5-|-7-------7-----6-|------------|
E|-5-0-0-0-4-0-0-3-|-0-0-0-0-2/3-2/3-|-5-0-0-0-5-0-0-4-|-0-0-0-0-3~-|
     . . .   . .     . . . .             . . .   . .     . . . .


Pre-Chorus

E|----------------|-------------|----------------|-------------|
B|----------------|-------------|----------------|-------------|
G|----------------|-------------|----------------|-------------|
D|----------------|-------------|----------------|-------------|
A|-6--6-6-6-6-6-6-|-7--7-5--5-5-|-6--6-6-6-6-6-6-|-7--7-6--6-6-|
E|-4--4-4-4-4-4-4-|-5--5-6--6-6-|-4--4-4-4-4-4-4-|-5--5-6--6-6-|
  

Chorus

E|--------|------|-------------|----------|
B|--------|------|-------------|----------|
G|--------|------|-------------|----------|
D|--------|------|-------------|----------|
A|-2--5/6-|-7--6-|-2--5/6--5-5-|-5--5-4-3-|
E|-0--3/4-|-5--4-|-0--3/4--3-3-|-3--3-2-1-|
                           

Interlude

E|----------------|-----------------|-------------------|-------------------|
B|----------------|-----------------|-------------------|-------------------|
G|----------------|-----------------|-------------------|-------------------|
D|----------------|-----------------|-------------------|-------------------|
A|-2--2-2-2-2-2-2-|-2-2-2-2-2-2-2-5-|-(5)-2-2-2-2-2-2-4-|-(4)-2-2-2-2-2-2-2-|
E|-0--0-0-0-0-0-0-|-0-0-0-0-0-0-0-3-|-(3)-0-0-0-0-0-0-2-|-(2)-0-0-0-0-0-0-0-|
        . . . . .   . . . . . . .           . . . . .           . . . . . .

E|----------------|-----------------|-----------------|---------------|
B|----------------|-----------------|-----------------|---------------|
G|----------------|-----------------|-----------------|---------------|
D|----------------|---------------4-|-(4)--5--------6-|-(6)--7--------|
A|-2--2-2-2-2-2-2-|-2-2-2-2-2-2-2-2-|-(2)--3--3-333-4-|-(4)--5--5-6-8-|
E|-0--0-0-0-0-0-0-|-0-0-0-0-0-0-0---|-----------------|---------------|
        . . . . .   . . . . . . .             . ...            


Bridge

E|---|-------------|---|-------------|
B|---|-------------|---|-------------|
G|---|-------------|---|-------------|
D|-4-|-3--2--0-1-3-|-4-|-3--2--0-1-2-|
A|-2-|-1--0--------|-2-|-1--0--------|
E|---|-------------|---|-------------|



Song Structure:
---------------
Intro A     1x
Intro B     4x
Verse       8x
Pre-Chorus  2x
Chorus      2x
Pre-Chorus  2x
Chorus      2x
Interlude   2x
Bridge      1x
Interlude   2x
Bridge      1x
Interlude   2x
Outro B     2x
Outro A     1x  

            
            
Suggest correction
Creating personal tab
Creating personal tab
You can edit any tab online and save it as your Personal.

You can edit, replace or remove any tab part or add personal notes – all changes will be seen only by you.

Personal tabs can be accessed anytime from any device, even offline.
Learn more »
Give kudos to tab author, rate the tab!
1 2 3 4 5
comments
print report bad tab
2 comments total.
0 reply
valve228 58 May 30, 2016 02:30 AM, edited at 06:31 am

E|-----------------|-----------------|-----------------|------------|B|-----------------|-----------------|-----------------|------------|G|-----------------|-----------------|-----------------|------------|D|-----------------|-----------------|-----------------|------------|A|-7-------6-----5-|---------4/5-4/5-|-7-------7-----6-|------------|E|-5-0-0-0-4-0-0-3-|-0-0-0-0-2/3-2/3-|-5-0-0-0-5-0-0-4-|-0-0-0-0-3~-|Great tab, but you have this one mistake, listen closely this part

+1 reply
valve228 58 May 30, 2016 02:31 AM

E|-----------------|-----------------|-----------------|------------|
B|-----------------|-----------------|-----------------|------------|
G|-----------------|-----------------|-----------------|------------|
D|-----------------|-----------------|-----------------|------------|
A|-7-------6-----5-|---------4/5-4/5-|-7-------7-----6-|------------|
E|-5-0-0-0-4-0-0-3-|-0-0-0-0-2/3-2/3-|-5-0-0-0-5-0-0-4-|-0-0-0-0-3~-|
here is correct

guest
You may want to rate the tab now too:
select rating
Wanna post a correction for this tab? Suggest correction