Oops, an error
Loading. Please wait.

Ella Va tab

22 views 1 this week
no commentswrite comment
1 2 3 4 5
3 more votes to show rating
add to favorites
×
Save as Personal and add changes to this tab that will be seen only by you. Learn more ›
×
You can save this tab as Personal to edit and correct it or add notes. All changes will be seen only by you. Learn more »
launch autoscroll
font size
0
reset
how to read this tab
guitar tuner
edit
Autoscroll
slow
fast
+/-
esc
set tempo
stop
Esta es la versión acústica de 'Ella va', grabada en el C.C 'La Noche' de Barranco.  En esta
canción los acompaña Manolo Barrios, primera guitara de Mar de Copas, en la segunda estrofa.
Para mi amorzote Carolina, te amo demasiado,  siempre me siento animado, por verte y tenerte
junto a mi lado. JHLE!

Acordes:
                  EADGBe
         Bm    : (x24432)
         A#    : (x13331)
         F     : (133211)
         C     : (x32010)
         E     : (022100)
         G     : (320033)

*********************************************************************************************


Rasguear de esta forma durante las estrofas: (Escuchar la canción)

    Bm                             A#

e------2-----------------------|------1-----------------------|
B------3---(hacia arriba y-----|------3---(hacia arriba y-----|
G------4----abajo tocando------|------3----abajo tocando------|
D------4---el 2° traste de-----|---3--3---el 3° traste de-----|
A---2--2---5° cda como bajo)---|------1---4° cda como bajo)---|
E------x-----------------------|------x-----------------------|

    F                              C

e------1-----------------------|------0-----------------------|
B------1---(hacia arriba y-----|------1---(hacia arriba y-----|
G------2----abajo tocando------|------0----abajo tocando------|
D---3--3---el 3° traste de-----|------2---el 3° traste de-----|
A------3---4° cda como bajo)---|---3--3---5° cda como bajo)---|
E------1-----------------------|------x-----------------------|


(0:06) Durante el inicio y estrofas, se toca esto cuando se rasguea lo de arriba:

    Bm       A#       F                        C

e---------|------------------------------------|-------------------|
B---------|------------------------------------|-------------------|
G---------|------------------------------------|-------------------|
D---------|--3...-0-0-2-3-3...-5..-3..-2..-0..-|-------------------|
A---2...--|------------------------------------|--3...-3-5-3-0...--|
E---------|------------------------------------|-------------------|


Bm          A#
Ella va, envuelta en un disfraz
F                         C
guarda una sombra oscura bajo el candor
Bm              A#
Respirar, sobre otro cuerpo más
F                         C             E
Las huellas que mañana querrás olvidaaaaaar...

Coro

D         E                     E------10-12-10----10----
Ella va... como el mar          B---10----------10-------  x4
D        E                      G------------------------
Mírala... remontar              D------------------------

E              G (rápido)    Bm              B---12b-12b-12b-----
... Los pies envejeciendo de tanto andar     G---11b-11b-11b-----
E             G (rápido)     Bm
... Por un mundo moderno que no va a esperar   e---22-22-22-21-21-21-19-19-19---

Hey Manolo! (entra Manolo Barrios de MdC)


Bm            A#
Ella va, cargada de ansiedad
F                          C
lleva una sombra oculta en el corazón
Bm           A#
Despertar, parece que no estás
F                        C         E
La luz te atrapa, hoy es un día máaaaaaaaas...


Coro

D         E                     E------10-12-10----10----
Ella va... como el mar          B---10----------10-------  x4
D        E                      G------------------------
Mírala... remontar              D------------------------
D                     E
Entre la espuma se desvanece el sol
D                       E
Como las aves blancas vuela una voz
E              G (rápido)    Bm              B---12b-12b-12b-----
... Los pies envejeciendo de tanto andar     G---11b-11b-11b-----
E             G (rápido)     Bm
... Por un mundo moderno que no va a esperar   e---22-22-22-21-21-21-19-19-19---


(2:40) Solo (Piano)

e-----------------------------------------------------------------------
B---------12----------------12-------------15-15-15-14-14-14-12-12-12---
G---11-12----12-11-12-11-12----12-12-11----16-16-16-14-14-14-12-12-12---
D-----------------------------------------------------------------------
A-----------------------------------------------------------------------
E-----------------------------------------------------------------------

e------------------------------------22-22-22-21-21-21-19-19-19-21------
B---------------12------------------------------------------------------
G---11-12-11-12----12-11-12-12-11---------------------------------------
D-----------------------------------------------------------------------
A-----------------------------------------------------------------------
E-----------------------------------------------------------------------

e-----------------------------------------------------------------------
B------(La siguiente parte del solo es ininteligible para la------------
G----------guitarra ya que el piano es demasiado-agudo)-----------------
D-----------------------------------------------------------------------
A------------------PUEDEN TERMINAR EL SOLO ASI--------------------------
E-----------------------------------------------------------------------


Coro

D         E                     E------10-12-10----10----
Ella va... como el mar          B---10----------10-------  x8
D        E                      G------------------------
Mírala... remontar              D------------------------
D                     E
Entre la espuma se desvanece el sol
D                       E
Como las aves blancas vuela una voz
D         E
Ella va... como el mar
D        E
Mírala... remontar... ahhhhhhh


D - E (hasta el final)

Ahhhhhhhhhh...

Ella vaaaaaaa... Ella vaaaaaa


(4:18)                                (4:24)

e------2-----------------------|------2-2-2---2------------------|
B------3---(hacia arriba y-----|------3-3-3---0------------------|
G------2----abajo tocando------|------2-2-2---2------------------|
D---0--0----la 4° cda al-------|------0-0-0---0----...FIN--------|
A------x---aire como bajo)-----|------x-x-x---x------------------|
E------x-----------------------|------x-x-x---x------------------|


                   **********************************************************
                   * TE AMO CAROLINA (28/12/03) This love is neverending... *
                   **********************************************************

            
            
Suggest correction
Creating personal tab
Creating personal tab
You can edit any tab online and save it as your Personal.

You can edit, replace or remove any tab part or add personal notes – all changes will be seen only by you.

Personal tabs can be accessed anytime from any device, even offline.
Learn more »
Give kudos to tab author, rate the tab!
1 2 3 4 5
comments
print report bad tab
guest
Wanna post a correction for this tab? Suggest correction