Oops, an error
Loading. Please wait.

La Bruma chords

92 views 1 this week
no commentswrite comment
1 2 3 4 5
3 more votes to show rating
add to favorites
×
Save as Personal and add changes to this tab that will be seen only by you. Learn more ›
×
You can save this tab as Personal to edit and correct it or add notes. All changes will be seen only by you. Learn more »
launch autoscroll
font size
0
reset
transpose
0
reset
display chords
guitar tuner
edit
Autoscroll
slow
fast
+/-
esc
set tempo
stop
Strumming
There is no strumming pattern for this song yet. and get +5 IQ
Con este temon ay que decir que viva el rock peruano que si ay calidad,. 
En Perú...Arriba cementerio club y otras bandas locales..

PIQUEO...(EN LA MAYORIA DE  LA CANCIÓN SE TOCA ESTE PIQUEO O ARPELGIO a 
EXCEPCION DE LOS  COROS; BUENO PARA SER SINCERO ESTA EN UN LAM)

E|---------------2-----------------------2-------------|
B|---0----------------------0--------------------------|
G|-----------------------------------------------------|
D|-------2---2-------2---2------2---2--------2---2-----|
A|-----1---1-------1---1------1---1--------1---1-------|
e|-----------------------------------------------------|

piqueo ( toda esta estrofa)

Sombras  ocultas, despiertan detrás,
de la  almas de cristal, voces lejanas,
de viejas canciones ,nos hablan ,de un
final....

C
Debo de extender el fuego que
                    Sol(riff2) Lam
en mi alma alumbra y desnudar
                                           Fa(riff 4)
los  sueños ante la luz de la  luna
C
Debo de enterrar el miedo que mi
   Sol(riff2) Lam
alma nubla ,y descubrir el cielo que
      F      Am
se a perdido en la bruma .. la bruma

Ah...Ah...ah
G - F - Em - G

piqueo ( toda esta estrofa)

Hondos abismos  profundos , siniestros,
silencian el ayer ;paso retumban, los
muros del tiempo ,que empiezan a ceder

C
Debo de extender el fuego que
                    Sol(riff2) Lam
en mi alma alumbra y desnudar
                                           Fa(riff 4)
los  sueños ante la luz de la  luna
C
Debo de enterrar el miedo que mi
   Sol(riff2) Lam
alma nubla ,y descubrir el cielo que
      F      Am
se a perdido en la bruma .. la bruma

Ah...Ah...ah
G - F - Em - G

Mientras el piqueo que me dio flojera hacerlo a pesar de que esta muy fácil  entra el arpegio)

Do Riff1 Sol Riff2 Lam Riff3 Fa Riff4 (X2 creo)

  C track G track Am track F track

Ah...Ah...ah
G - F - Em - G

        Riff1                Riff2      Riff3      Riff4
E|--------|--3----2----|------------|----------------|
B|-3------|----0-2-----|------------|--3-------------|
G|--0-2---|--------0---|---2--------|----0-2---------|
D|-----0--|------------|-----0-2----|--------0-------|
A|--------|------------|---------1--|----------------|
e|-------------|-------------------|-------------------|-------------------------|

(track)
E|---------------------|
B|---------------------|
G|---------------------|
D|---------------------|
A|-----3-1-3-----------|
e|---3-0--------------------------|

Bueno eso  es toda la canción,., que esta bien hecha--.-si algún 
error me lo comunican.., además.,,va conmigo,., lo que debo hacer lo que hago y lo que are.,
os veremos pronto gratie jaruvi merci .M.....JJCC::

            
            
Suggest correction
Creating personal tab
Creating personal tab
You can edit any tab online and save it as your Personal.

You can edit, replace or remove any tab part or add personal notes – all changes will be seen only by you.

Personal tabs can be accessed anytime from any device, even offline.
Learn more »
Give kudos to tab author, rate the tab!
1 2 3 4 5
comments
print report bad tab
guest
Wanna post a correction for this tab? Suggest correction