Oops, an error
Loading. Please wait.

Loco Por Tu Amor tab

239 views 1 this week
1 commentread comment
1 2 3 4 5
2 more votes to show rating
add to favorites
×
Save as Personal and add changes to this tab that will be seen only by you. Learn more ›
×
You can save this tab as Personal to edit and correct it or add notes. All changes will be seen only by you. Learn more »
launch autoscroll
font size
0
reset
how to read this tab
guitar tuner
edit
Autoscroll
slow
fast
+/-
esc
set tempo
stop
aqui esta la cancion original de chabelos ...

Fig.1
   Em            C             D     |^|     G
e|---------0-------------0------------2-----------------|
B|-----------0---------1---1-------3----3---------------|
G|-------0-----0-----0-------0---2--------2-------------|
D|-----2-----------2-----------0------------------------|
A|---2-----------3--------------------------------------|
E|-0------------------------------------------3---3-2-0-|


Fig.2
    Em          C              D               G     G   F#
e|--0-----------0--------------2---------------3-----3---2---|
B|--0-----------1--------------3---------------3-----3---2---|
G|--0-----------0--------------2---------------4-----4---3---|
D|--2-----------2--------------0---------------5-----5---4---|
A|--2-----------3------------------------------5-----5---4---|
E|--0------------------------------------------3-----3---2---|


Gif.3
    Em           C
e|--0------------0----|
B|--0------------1----|
G|--0------------0----|
D|--2------------2----|
A|--2------------3----|
E|--0-----------------|


Fig.4
    Em           C       D
e|--0------------0-------2--|
B|--0------------1-------3--|
G|--0------------0-------2--|
D|--2------------2-------0--|
A|--2------------3----------|
E|--0-----------------------|


Fig.5
   G5       D5         E5         C5
e|-------------------------------------|
B|-------------------------------------|
G|----------7----------9----------5----|
D|-5--------7----------9----------5----|
A|-5--------5----------7----------3----|
E|-3-----------------------------------|


Fig.6

   C5      D5    D5---A5
e|-----------------------|
B|-----------------------|
G|-5-------7-----7-5-4-2-|
D|-5-------7-----7-5-4-2-|
A|-3-------5-----5-3-2-0-|
E|-----------------------|


Fig.7
    E5          C5             D5              G5    G5  F#5
e|-----------------------------------------------------------|
B|-----------------------------------------------------------|
G|--9-----------5--------------7-----------------------------|
D|--9-----------5--------------7---------------5-----5---4---|
A|--7-----------3--------------5---------------5-----5---4---|
E|---------------------------------------------3-----3---2---|


Fig.8
   E5         C5
e|---------------|
B|---------------|
G|-9----------5--|
D|-9----------5--|
A|-7----------3--|
E|---------------|

Fig.9
   E5  C5      D5    D5---A5
e|---------------------------|
B|---------------------------|
G|-9---5-------7-----7-5-4-2-|
D|-9---5-------7-----7-5-4-2-|
A|-7---3-------5-----5-3-2-0-|
E|---------------------------|


Endig
     D5---A5   G5
e|-------------------|
B|-------------------|
G|- -7-5-4-2---------|
D|---7-5-4-2----5----|
A|---5-3-2-0----5----|
E|--------------3----|

Riff.

e|---------------------------------------------------------|
B|---2-4-5-4-5-4-2--------------------------------7---7----|
G|-4---------------4-2-----------4/6-8-6----6-8-9---9---9--|
D|---------------------5/7-5~~-----------------------------|
A|---------------------------------------------------------|
E|---------------------------------------------------------|


Intro - Fig.1


Fig.1
  E                 C
Anoche mientras dormia
         D              G
te aparecias en mis sueños.
  Em                 C
Era un sueño muy hermoso
          D              G
pero de pronto me desperte.
   Em              C
Sudaba y me daba vueltas
            D                G
solo en mi cama no podia dormir.
   Em             C
Miré hacia la ventana
             D               G
y en una estrella tu rostro vi.


Fig.2
   Em            C
Puse mi CD de Arjona
           D            G
y en cada nota te recorde.
   Em                  C
Me di cuenta que no estabas
           D              G
y en el silencio solo llore.
    Em               C
De pronto en la soledad
          D            G
por un momento tu voz oi.
     Em              C
Pero vi que no era cierto
             D                G
y con mucha pena otra vez dormi.


Fig.3 + Riff.
Em                         C
Es que estoy loco por tu amor


Fig.4
Em                         C
Es que estoy loco por tu amor
         D
Por tu amor


Fig.5
  G5               D5
Quiero cojerte de patas al hombro
   E5                 C5
lamerte el ortega clavarte la huasa.
  G5               D5
Quiero comerme tu pila y tu caca
  E5                   C5
olerte un buen pedo lamerte la raja.
  G5                 D5
Quiero culearte por todos los huecos
    E5                C5
morderte las tetas venirme en tu cara.
  G5                   D5
Quiero cacharte hasta verte sangrar
       E5                         C5
que mi pinga reviente dentro del coito anal

Fig.6
C5      D5   D5 C5 B5 A5
coito anal   ye ye ye ye


Fig.5

Fig.5

Fig.6


Fig.7
  E5                C5
Anoche mientras dormia
         D5              G5
se me mojaba el calzoncillo.
  E5                C5
Era un sueño muy hermozo
           D5              G5
donde de pronto te la envoque.
  E5                C5
Como estaba solo en cama
          D5            G5
con la manuela me la cogi.
    E5             C5
Y ¡jala que jala tripa!
         D5              G5
en un instante me la corri.
  E5                C5
Puse el caset de Chabelos
          D5             G5
y en cada verso me masturbe.
  E5               C5
Y como tu no llegabas
         D5              G5
puse una porno y la vi otra vez.
   E5                 C5
Salio un chorro de lechada
           D5           G5
que de mi verga se disparo.
   E5             C5
Rompi toda la pantalla
        D5              G5
y de rebote mojé el colchón.


Fig.8
E5                         C5
Es que estoy loco por tu amor

Fig.9
E5                         C5
Es que estoy loco por tu amor
         D5    D5---A5
Por tu amor


Fig.5
   G5               D5
Quiero clavarte la huasa mandrapa
   E5                 C5
morderte la vulva masticar tu papa.
  G5               D5
Quiero venirme completo en tu boca
      E5                 C5
que trages mi semen que muerdas mi trola
  G5               D5
Quiero meterte la pinga en el ano
   E5                 C5
lamer tus pendejos romperte el chiclayo.
  G5                  D5
Quiero culearte hasta no poder mas
   E5                     C5
morir en tus brazos de tanto fornicar

Fig.6
C5    D5   D5 C5 B5 A5
fornicar   ye ye ye ye


Fig.5


Fig.5
G5             D5            E5
  es que estoy loco por tu amor
               C5          G5
es que estoy loco por tu ano
             D5            E5
es que estoy loco por tu amor
               C5          G5
es que estoy loco por tu ano
             D5            E5
es que estoy loco por tu amor
               C5          D5
es que estoy loco por tu ano


Ending.
D5 C5 B5 A5 G5
ye ye ye ye yeah.


(Ojo en el cambio en el ultimo "ano" de G5 a D5)


cualkier kosa me lo envian a mi correo: miguelsport_13@

            
            
Suggest correction
Creating personal tab
Creating personal tab
You can edit any tab online and save it as your Personal.

You can edit, replace or remove any tab part or add personal notes – all changes will be seen only by you.

Personal tabs can be accessed anytime from any device, even offline.
Learn more »
Give kudos to tab author, rate the tab!
1 2 3 4 5
comments
print report bad tab
1 comment total.
0 reply
mich_big98 10 Jul 01, 2016 10:49 PM

Excelente trabajo

guest
Wanna post a correction for this tab? Suggest correction