Oops, an error
Loading. Please wait.

Mi Novia tab

50 views 1 this week
no commentswrite comment
1 2 3 4 5
3 more votes to show rating
add to favorites
×
Save as Personal and add changes to this tab that will be seen only by you. Learn more ›
×
You can save this tab as Personal to edit and correct it or add notes. All changes will be seen only by you. Learn more »
launch autoscroll
font size
0
reset
how to read this tab
guitar tuner
edit
Autoscroll
slow
fast
+/-
esc
set tempo
stop
Bueno aca les dejo la tablatura de una cancion bien paja
de los chabelos!!!

[-----------------------------------------------------------
[------1-3-3/5-3/5-3/5-3-1-3---1--1-3------1-3-3/5-5-3-1-3--
[----2--------------------------------2--2------------------
[-----------------------------------------------------------
[-----------------------------------------------------------
[-----------------------------------------------------------

[---------------------------------------------------
[----1-3-3/5-5-3-1-3-1-----1-3-3/5-5-5555-1-33333---
[--2---------------------2--------------------------
[---------------------------------------------------
[---------------------------------------------------
[---------------------------------------------------

En toda la cancion se tok un arpegio q acompaña a la
electrica

      DO        LAm      FA        DO
[------0---------0--------1---------0-----------
[-----1-1-------1-1------1-1-------1-1----------
[----0---0-----2---2----2---2-----0---0---------
[-----------------------------------------------
[---3---------0------------------3--------------
[----------------------1------------------------

      FA        DO         FA        SOL
[------1---------0----------1---------3----------
[-----1-1-------1-1--------1-1-------3-3---------
[----2---2-----0---0------2---2-----0---0--------
[------------------------------------------------
[-------------3----------------------------------
[---1--------------------1---------3-------------

DO                 LAm
Recuerdas mi amor  varios años atrás
FA                   DO
Cuando nos conocimos en la barra de un bar
FA                    DO
Tu estabas saboreando un riquísimo tamal
FA                      SOL
Con harta salsa criolla y una jarra de cerveza

DO                LAm
Desde aquella vez siempre salimos a comer
FA                DO
De día de noche y en el lonche también
FA                DO
Te has convertido en una marrana gigantesca
FA                 SOL
Comas lo que comas ya nada te indigesta

DO                      LAm
Te encanta el tacu tacu y tú lomo saltao
FA                   DO
Te empujas picarones helados y turrones
FA                  DO
No quiero ni pensar en el tamaño de tus mojones
FA                 SOL
Me excita imaginar que me agarras y me comes


Por eso...
DO     LAm    FA        DO
Lameme,Cómeme,Mastícame,Triturame
FA     DO      FA          SOL
Pásame,Trágame,Digiéreme y cagame...

DO            LAm
lameme lameme comeme comeme
FA        DO
masticame triturame
FA     DO
pasame tragame
FA                SOL
digiereme cagame cagame cagame cagame...

Aqui va el intro de nuevo
[-----------------------------------------------------------
[------1-3-3/5-3/5-3/5-3-1-3---1--1-3------1-3-3/5-5-3-1-3--
[----2--------------------------------2--2------------------
[-----------------------------------------------------------
[-----------------------------------------------------------
[-----------------------------------------------------------

[---------------------------------------------------
[----1-3-3/5-5-3-1-3-1-----1-3-3/5-5-5555-1-33333---
[--2---------------------2--------------------------
[---------------------------------------------------
[---------------------------------------------------
[---------------------------------------------------

Las notas son las mismas en toda la cancion y con el mismo
arpegio

Adoro la manera en que puedes engullirte
40 salchipapas y una fuente de ceviche
No usas sal de andrews nunca has tenido colitis
Tú estomago y tu colon nada saben de gastritis

Me gusta como huele el aroma de tus chanchos
A choro a la chalaca y fréjoles con pescado
Me comería tus rollos y tu calzón cagado
Me gustaría llevarme tus pedos envasados

Te empujas 100 chorizos 100 churrascos y morsillas
Eso te ah generado toda clase de espinillas
Me comería tus granos untado cual mantequilla
Y luego como postre tus orines con vainilla

Por eso...
Lameme,
Cómeme
Mastícame,
triturame,
Pásame,
Trágame,
Digiéreme,
Y cagame...

lameme lameme
comeme comeme
masticame triturame
pasame tragame
digiereme cagame cagame cagame cagame...

Pero solo de amor
Cagame solo de amor
Pero solo de amor
Cagame solo de amor
Pero solo de amor
Cagame solo de amor


[------------------------
[----1-3/5-555-3-1-3-1---
[--2---------------------
[------------------------
[------------------------
esto de aqui dos veces

Algun comentario mandenme un mail a juanfer108@

            
            
Suggest correction
Creating personal tab
Creating personal tab
You can edit any tab online and save it as your Personal.

You can edit, replace or remove any tab part or add personal notes – all changes will be seen only by you.

Personal tabs can be accessed anytime from any device, even offline.
Learn more »
Give kudos to tab author, rate the tab!
1 2 3 4 5
comments
print report bad tab
guest
Wanna post a correction for this tab? Suggest correction