Oops, an error
Loading. Please wait.

Bruises bass

version 1
version 1

Whole song

17,493 views 3 this week
4 commentsread comments
1 2 3 4 5
x 9
add to favorites
×
Save as Personal and add changes to this tab that will be seen only by you. Learn more ›
×
You can save this tab as Personal to edit and correct it or add notes. All changes will be seen only by you. Learn more »
launch autoscroll
font size
0
reset
guitar tuner
edit
Autoscroll
slow
fast
+/-
esc
set tempo
stop
Author
Difficulty
THIS IS MY FIRST TAB 
PLEASE COMMENT AND RATE

CHORUS
|--------------------------------------------|
|---------5-3-3-3-3-2------------------------| (x4)
|3-3-3-3-5-----------3-0-0-0-0-2h3-----------|
|---------------------------------3-3-3-3-4h5|

KEYBOARD SOLO/VERSE
|--------------------------------------------|
|--------------------------------------------| (x2)
|3-3-3-3-1p0-----------0-0-0-0-2h3-----------|
|-----------3-3-3-3-4h5-----------3-3-3-3-4h5|

CHORUS (x2)

(PLAY UNTIL END)
|--------------------------------------------|
|--------------------------------------------| 
|3-3-3-3-1p0-----------0-0-0-0-2h3-----------|
|-----------3-3-3-3-4h5-----------3-3-3-3-4h5|

END
|-----------|
|-----------|
|3~~~~~~~~~~|
|-----------|

            
            
Suggest correction
Creating personal tab
Creating personal tab
You can edit any tab online and save it as your Personal.

You can edit, replace or remove any tab part or add personal notes – all changes will be seen only by you.

Personal tabs can be accessed anytime from any device, even offline.
Learn more »
comments
print report bad tab
4 comments total. Showing first comments.
0 reply
Swordacool 10 Oct 26, 2008 05:35 PM

i like it, pretty good tab!
keep up the good work.

0 reply
sirpsyco5exy 31 Nov 07, 2008 01:48 PM

yeah! good work.. im givin ya 5!

0 reply
Swordacool 10 Nov 09, 2008 04:42 PM

hey, mind if i ask u t put the lyrics?
my timing is a little off when playing..

guest
You may want to rate the tab now too:
select rating
Wanna post a correction for this tab? Suggest correction