Oops, an error
Loading. Please wait.

Clases tab

11 views 1 this week
no commentswrite comment
1 2 3 4 5
3 more votes to show rating
add to favorites
×
Save as Personal and add changes to this tab that will be seen only by you. Learn more ›
×
You can save this tab as Personal to edit and correct it or add notes. All changes will be seen only by you. Learn more »
launch autoscroll
font size
0
reset
how to read this tab
guitar tuner
edit
Autoscroll
slow
fast
+/-
esc
set tempo
stop
Intro: Em D Em

E||-------------------------|---------------------|
B||--12------10---10--8-----|---------------------|
G||-------------------------|--9--------12--------|
D||-------------------------|---------------------|
A||-------------------------|---------------------|
E||-------------------------|---------------------|


----------------------------|---------------------|
--12------10--12--10--8--7--|---------------------|
----------------------------|--9--------12--------|
----------------------------|---------------------|
----------------------------|---------------------|
----------------------------|---------------------|


----------------------------|----------------------------|
--12------10--12--10--8--7--|--10---10----12---12----13--|
----------------------------|----------------------------|
----------------------------|----------------------------|
----------------------------|----------------------------|
----------------------------|----------------------------|


------------------------------|------------------------|
--15------15--17--15--13--12--|--10----10----13--------|
------------------------------|------------------------|
------------------------------|------------------------|
------------------------------|------------------------|
------------------------------|------------------------|


---------------------------|----------------------|-------------|
--10--12--10--8--7---------|----------12------10--|---12--15----|
--------------------9------|----------------------|-------------|
---------------------------|----------------------|-------------|
---------------------------|----------------------|-------------|
---------------------------|----------------------|-------------|


Em
¡Hey!, sabes que yo
quería ser distinto, quería ser mejor,
                        D
quería distinguirme de toda la gente,
quería ser el más, el más diferente.
                     Em
Venía de tan lejos, de un pueblo olvidado,
izaba la bandera de los desamparados,
                    D
gritaba por justicia, gritaba por verdad,
                                        Em
gritaba todo el tiempo por la libertad.
                  Em
Y un día me di cuenta
que estaba en el lugar que había soñado,
                       D
yo no era el salvador que habían esperado,
yo no era como Dios, yo era como el diablo.
                    Em
¿Pero que te pasó?. ¿No te acordás?.
Nosotros te pusimos allí donde estás,
                          D
nosotros te creímos, nosotros te seguimos,
                                                Em
las marcas de tus pasos no se ven en el abismo.

Intermedio: Em D Em (el punteo es = q la intro pero sin el
                     primer compas)

Em
El país. El país.
El país que nosotros vemos
no tiene la raíz como la queremos.
                          D
Preferimos ser pobres pero liberados,
no tener las lágrimas de los esclavos.
                 Em
Preferimos saber que somos de abajo,
no pedimos limosna, queremos trabajo,
                  D
para defender a nuestra bandera,
la celeste y blanca lo único que nos queda.
                         Em
Pero que quede claro: Queremos la paz.
Siempre, antes que nada, queremos la paz.


                       D
Pero la paz del pueblo, no la de los gobernantes,
                                          Em
lo único que quieren es que nadie se levante.
             Em
Pero tené cuidado que un día de estos
vamos a salir todos a la calle,
                        D
nos vamos a juntar todos en la Plaza
                               Em
y vamos a unir la poca esperanza.

Solo de bajo

Solo de vientos (Em D Bm):
-------------------|-------------------------|--------------------|
-------------------|-------------------------|--------------------|
--9----------------|------9--9--12----11--9--|--14----------------|
-------------------|-------------------------|--------------------|
-------------------|-------------------------|--------------------|
-------------------|-------------------------|--------------------|


------------------|--------------------|------------------------|
------------------|--12----------------|------8--8--10----8--7--|
------------------|--------------------|------------------------|
------------------|--------------------|------------------------|
------------------|--------------------|------------------------|
------------------|--------------------|------------------------|


---------------------|------------------|-------------------|
---------------------|------------------|-------------------|
--12--------9--------|------------------|--9----------------|
---------------------|------------------|-------------------|
---------------------|------------------|-------------------|
---------------------|------------------|-------------------|


-------------------------|--------------------|------------------|
-------------------------|--------------------|------------------|
------9--9--12----11--9--|--14----------------|------------------|
-------------------------|--------------------|------------------|
-------------------------|--------------------|------------------|
-------------------------|--------------------|------------------|


----------------------|------------------------|
--12------------------|------8--8--10----8--7--|
--------11------------|------------------------|
----------------------|------------------------|
----------------------|------------------------|
----------------------|------------------------|


---------------------||
---------------------||
--12--------9--------||
---------------------||
---------------------||
---------------------||


           Em                    D
Sumaremos más de treinta millones,
                   Bm                              Em
gritando al mismo tiempo, mujeres con hombres.
            Am                   G
Y se desatará un viento huracanado,
                 Bm                      Em
las copas de los árboles aprueban el llamado.

Repite intro y termina con la nota MI

            
            
Suggest correction
Creating personal tab
Creating personal tab
You can edit any tab online and save it as your Personal.

You can edit, replace or remove any tab part or add personal notes – all changes will be seen only by you.

Personal tabs can be accessed anytime from any device, even offline.
Learn more »
Give kudos to tab author, rate the tab!
1 2 3 4 5
comments
print report bad tab
guest
Wanna post a correction for this tab? Suggest correction