Oops, an error
Loading. Please wait.

El Ska tab

10 views 1 this week
no commentswrite comment
1 2 3 4 5
3 more votes to show rating
add to favorites
×
Save as Personal and add changes to this tab that will be seen only by you. Learn more ›
×
You can save this tab as Personal to edit and correct it or add notes. All changes will be seen only by you. Learn more »
launch autoscroll
font size
0
reset
how to read this tab
guitar tuner
edit
Autoscroll
slow
fast
+/-
esc
set tempo
stop
Intro: (Bm E) x2

Intro de vientos:
             A                        A
E||--9--9----9--9----9--10--|----9----9/-7----5----|
B||-------------------------|----------------------|
G||-------------------------|----------------------|
D||-------------------------|----------------------|
A||-------------------------|----------------------|
E||-------------------------|----------------------|


            Bm                  Bm
--7--7----9--7--9-------|------------------|
---------------------7--|-------(7)*-------|   *queda sonando
------------------------|------------------|    la nota del
------------------------|------------------|    compas anterior
------------------------|------------------|
------------------------|------------------|


          E                          E
--7--7----7--7----------|---------7--9--7--9--7--|
------------------5--5--|----9-------------------|
------------------------|------------------------|
------------------------|------------------------|
------------------------|------------------------|
------------------------|------------------------|


        A              Bm        E7
--5----------------|--7--7------9--9------||
-------------------|----------------------||
-------------------|----------------------||  x2
-------------------|----------------------||
-------------------|----------------------||
-------------------|----------------------||


A                                        Bm
Voy buscando el lugar donde duerme el sol, donde nace el mar,
E                               A     Bm-E7
allí donde se refugia la libertad.
A                                    Bm
Me pierdo por mil caminos en busca de un poco de paz,
E                                     A    Bm-E7
el día lo pide a gritos no esperes más.

Intermedio:
             A                        A
E||--9--9----9--9----9--10--|----9----9/-7----5----|
B||-------------------------|----------------------|
G||-------------------------|----------------------|
D||-------------------------|----------------------|
A||-------------------------|----------------------|
E||-------------------------|----------------------|


            Bm                  Bm
--7--7----9--7--9-------|------------------|
---------------------7--|-------(7)*-------|   *queda sonando
------------------------|------------------|    la nota del
------------------------|------------------|    compas anterior
------------------------|------------------|
------------------------|------------------|


          E                          E
--7--7----7--7----------|---------7--9--7--9--7--|
------------------5--5--|----9-------------------|
------------------------|------------------------|
------------------------|------------------------|
------------------------|------------------------|
------------------------|------------------------|


        A              Bm        E7
--5----------------|--7--7------9--9------||
-------------------|----------------------||
-------------------|----------------------||  x1
-------------------|----------------------||
-------------------|----------------------||
-------------------|----------------------||

A                                 Bm
Estoy del lado del loco, del preso, de los olvidados,
E                               A   Bm
si soy uno de ellos me siento igual.
B                                    C#m
Pero hoy tuve un día tranquilo que no es poco, es mucho más,
F#                                 B    C#m-F#7
ví a mi alma bailando arriba del mar.

Intermedio:
             A                        A
E||--9--9----9--9----9--10--|----9----9/-7----5----|
B||-------------------------|----------------------|
G||-------------------------|----------------------|
D||-------------------------|----------------------|
A||-------------------------|----------------------|
E||-------------------------|----------------------|


            Bm                  Bm
--7--7----9--7--9-------|------------------|
---------------------7--|-------(7)*-------|   *queda sonando
------------------------|------------------|    la nota del
------------------------|------------------|    compas anterior
------------------------|------------------|
------------------------|------------------|


          E                          E
--7--7----7--7----------|---------7--9--7--9--7--|
------------------5--5--|----9-------------------|
------------------------|------------------------|
------------------------|------------------------|
------------------------|------------------------|
------------------------|------------------------|


        A              Bm        E7
--5----------------|--7--7------9--9------||
-------------------|----------------------||
-------------------|----------------------||  x1
-------------------|----------------------||
-------------------|----------------------||
-------------------|----------------------||

A                                          Bm
El camino que perseguí se quedó en un callejón,
E                                 A     Bm-E7
mejor probemos suerte por otro lugar.
A                                  Bm
El sueño terminó, hay que decir adiós,
E                               A     Bm-E (como intro)
pero vayámonos juntos de este lugar.

Intermedio:
             A                        A
E||--9--9----9--9----9--10--|----9----9/-7----5----|
B||-------------------------|----------------------|
G||-------------------------|----------------------|
D||-------------------------|----------------------|
A||-------------------------|----------------------|
E||-------------------------|----------------------|


            Bm                  Bm
--7--7----9--7--9-------|------------------|
---------------------7--|-------(7)*-------|   *queda sonando
------------------------|------------------|    la nota del
------------------------|------------------|    compas anterior
------------------------|------------------|
------------------------|------------------|


          E                          E
--7--7----7--7----------|---------7--9--7--9--7--|
------------------5--5--|----9-------------------|
------------------------|------------------------|
------------------------|------------------------|
------------------------|------------------------|
------------------------|------------------------|


        A              Bm        E7
--5----------------|--7--7------9--9------||
-------------------|----------------------||       (el ultimo
-------------------|----------------------||  x2   compas no se
-------------------|----------------------||       repite la 2da
-------------------|----------------------||       vez)
-------------------|----------------------||


        Bm                       A
--7--7----9----7---------|--------------------|
------------------10--7--|--10----------------|
-------------------------|--------------------|
-------------------------|--------------------|
-------------------------|--------------------|
-------------------------|--------------------|


        Bm                        A
--7--7----9----7---------|--------------------|
------------------10--7--|--10----------------|
-------------------------|--------------------|
-------------------------|--------------------|
-------------------------|--------------------|
-------------------------|--------------------|


   Bm        C#           Bm        C#
--7--7------9--9------|--7--7------9--9------|
----------------------|----------------------|
----------------------|----------------------|
----------------------|----------------------|
----------------------|----------------------|
----------------------|----------------------|


----7----5-----------|--------------------||
--------------7------|--10----------------||
---------------------|--------------------|| FINAL
---------------------|--------------------||
---------------------|--------------------||
---------------------|--------------------||


aguante chala !

            
            
Suggest correction
Creating personal tab
Creating personal tab
You can edit any tab online and save it as your Personal.

You can edit, replace or remove any tab part or add personal notes – all changes will be seen only by you.

Personal tabs can be accessed anytime from any device, even offline.
Learn more »
Give kudos to tab author, rate the tab!
1 2 3 4 5
comments
print report bad tab
guest
Wanna post a correction for this tab? Suggest correction