Oops, an error
Loading. Please wait.

Libre Para Que? chords

29 views 1 this week
no commentswrite comment
1 2 3 4 5
3 more votes to show rating
add to favorites
×
Save as Personal and add changes to this tab that will be seen only by you. Learn more ›
×
You can save this tab as Personal to edit and correct it or add notes. All changes will be seen only by you. Learn more »
launch autoscroll
font size
0
reset
transpose
0
reset
display chords
guitar tuner
edit
Autoscroll
slow
fast
+/-
esc
set tempo
stop
Strumming
There is no strumming pattern for this song yet. and get +5 IQ
Intro (Em D) x4

Entra en la 3ra vuelta:

e----------------------------------------
B----------------------------------10b---
G----------------7/---9~-----------------
D----------------------------------------
A----------------------------------------
E----------------------------------------


-------------------------10b-10--7------------
------10r-8h10----------------------10r-------
----------------------------------------------
----------------------------------------------
----------------------------------------------
----------------------------------------------


------------------
------------------
--7/9--7/9--7/9---
------------------
------------------
------------------


Em
Si tenés la libertad
de participar o mirar
              D
y elegís mirar.
Em
Si tenés la libertad
de ser leal o traicionar
                  D
y elegís traicionar.

C
¿Libre para qué?.
G
¿Libre para qué?.
C
¿Libre para qué?.
G (o Em)
¿Libre para qué?.
D
¿Para qué?.

Em
Si tenés la libertad
de seguir o abandonar
                 D
y elegís abandonar.
Em
Si tenés la libertad
de cosechar o de talar
              D
y elegís talar.
Em
Si tenés la libertad
                          D
para ya no dejarte explotar,
                        C
sin embargo elegís criticar
                 G(o Em)                   D
al obrero que corta una ruta por no poder más.

Em                 D
Oh, quiero ser libre.
Em                             D
Oh, oh, (decís) quiero ser libre.
            C
(Y yo digo) ¿Libre para qué?.

G
¿Libre para qué?.
C
¿Libre para qué?.
G (o Em)
¿Libre para qué?.
D
¿Para qué?.

Em
Si tenés la libertad
de proteger o de entregar
                D
y elegís entregar.
Em
Si tenés la libertad
de amar o de encerrar
                 D
y elegís encerrar.
Em
Si tenés la libertad
                           D
de enseñarle a tu hijo a volar
                        C
y elegís un cielo artificial
                 G(o Em)                      D
donde la luna sale a toda hora en la computadora.

Oh, quiero ser libre.
Oh, oh, (decís) quiero ser libre.
(Y yo digo) ¿Libre para qué?.
¿Libre para qué?.
¿Libre para qué?.
¿Libre para qué?.
¿Para qué?.


Solo

e--10b-10b-10b-10b-10b-10b-10b--------------------------10p7-
B------------------------------------------8--10--10b--------
G--------------------------------------7h9-------------------
D------------------------------------------------------------
A------------------------------------------------------------
E------------------------------------------------------------


-----------------10----------10/12-15--12----15p-12h-15p-12h-
--10~------10/12---------------------------------------------
-------------------------------------------------------------
-------------------------------------------------------------
-------------------------------------------------------------
-------------------------------------------------------------


--15p-12h-15p-12h-15/-17----
----------------------------
----------------------------
----------------------------
----------------------------
----------------------------


¿Libre para qué?.
¿Libre para qué?.
¿Libre para qué?.
¿Libre para qué?.

(sube un semitono)
¿Libre para qué?.
¿Libre para qué?.
¿Libre para qué?.
¿Libre para qué?.

¿Libre para qué?.

Referencias:
  /=slide
  h=ligado ascedente
  p=ligado descedente
  b=estirar
  r=volver de estirada

            
            
Suggest correction
Creating personal tab
Creating personal tab
You can edit any tab online and save it as your Personal.

You can edit, replace or remove any tab part or add personal notes – all changes will be seen only by you.

Personal tabs can be accessed anytime from any device, even offline.
Learn more »
Give kudos to tab author, rate the tab!
1 2 3 4 5
comments
print report bad tab
guest
Wanna post a correction for this tab? Suggest correction