Oops, an error
Loading. Please wait.

Nube Negra bass

22 views 1 this week
no commentswrite comment
1 2 3 4 5
3 more votes to show rating
add to favorites
×
Save as Personal and add changes to this tab that will be seen only by you. Learn more ›
×
You can save this tab as Personal to edit and correct it or add notes. All changes will be seen only by you. Learn more »
launch autoscroll
font size
0
reset
guitar tuner
edit
Autoscroll
slow
fast
+/-
esc
set tempo
stop
Intro

G|---------------------------|
D|---------------------------|
A|---------7--------------7--|
E|---5-5------55555--5-5-----|


Me acuerdo de los salvajes

que te mostraban los libros,


G|---------------------------|
D|---------------------------|
A|---------7--------------7--|
E|---5-5------55555--5-5-----|


cuidaban a sus ancianos,

eran su tesoro más preciado.


G|---------------------------------|
D|---------------------------------|
A|-------------------------------2-|
E|--3-3--3---33333--3---3--333-5---|


G|-----------------9---------9-------------|
D|-------------------10--7-----10-7--------|
A|------7777777-7------------------------3--|
E|--5-5------------------------------0-3---|


Eran animales,

dijeron los barcos,


G|---------------------------|
D|---------------------------|
A|---------7--------------7--|
E|---5-5------55555--5-5-----|


hay que domesticarlos

para poder exterminarlos.


G|---------------------------------|
D|---------------------------------|
A|-------------------------------2-|
E|--3-3--3---33333--3---3--333-5---|


G|-----------------9---------9----------------|
D|-------------------10--7-----10-7-----------|
A|------7777777-7------------------------3-----|
E|--5-5------------------------------0-3----5-|


El hijo de Nube Negra miró asombrado
como mataban a su padre esos soldados,


G|--------------------------------------|
D|--------------------------------------|
A|--------------------------3/555555555-|
E|--5-0-55-0-555-0-55-5-3--------------|


G|----------14-12----------------|
D|-------14-------12-14------------|
A|-12-15-------------------------|
E|---------------------------|


y como el pueblo entero fue esclavizado


G|---------------------------------------------------|
D|-----19-17h19-17h19-17h19-19-19-17h19-19-17--------|
A|-17------------------------------------------------|
E|---------------------------------------------------|

                         y como todos sus dioses lo abandonaron.
G|----------------------|-----------------------------|
D|----------------------|-----------------------------|
A|----------------------|--55---555-------------------|
E|-33-0-33-0-33-0-333---|-----5--------55-000-333-5---|


Como nadie sabía lo que pasaba,


G|----------------------------|
D|----------------------------|
A|--3-------------------------|
E|-----33-0-33-0-33--0-333---|

todo lo que pensaron se equivocaban.


G|----------------------------------14-12--------|
D|-------------------------------14-------12-14---------|
A|-----------55------------12-15----------------|
E|--x-x-33-x-------x-x-x---------------------------|


G|------------------------------------------------|
D|-----17h19-17h19-17h19-17h19h17--------------|
A|--17----------------------------19-17-------|
E|---------------------------------------19-17--------|


No eran reyes que venían desde el cielo

y ahora toda la Tierra está de duelo.


G|-------------------------------------------------------|
D|-------------------------------------------------------|
A|--------------------------55---55----------------------|
E|--33-0-33-0-33-0-333--x-x----x----x-x-x-0-55-x-5-------|


Puente


G|---------------------------------------|
D|------------7-7--------------7-7-------|
A|-----------------7-7-------3------7-7---|
E|-0-55-33---------------0-3-------------|


Les robaron las tierras,

después las alambraron


G|-----------------------------------------|
D|--7-7----------------7-7-----------------|
A|------7------------------7---------------|
E|-----------5-00-3-5-------------5-00-3-5-|


para que no entre nadie,

ahora es un desierto abandonado.


G|-------------------------------------------|
D|-------------------------------------------|
A|-------------------------------------------|
E|-3-x-3--3-x-333-33--3-x-3--3-x-333-33------|


Puente

G|--------------------------------------------------------|
D|--------7-7-----------------------7-7-------------------|
A|--------------7-7----------------------7-7-----3--------|
E|---------------------0-55-33---------------0-3----------|


Pasó tanto tiempo,

la herida sigue abierta,


G|-------------------------------------|
D|--7---------------7--7---------------|
A|----7------------------7-------------|
E|-------5-00-3-5-----------5-00-3-5---|


las venas del nativo

son las sogas que atan nuestro camino.


G|-------------------------------------------|
D|-------------------------------------------|
A|------------------------------------2-3----|
E|-3-x-3--3-x-333-33--3--x-x-x-x-33-5--------|


G|-----------------9---------9--------------------|
D|-------------------10--7-----10-7---------------|
A|------7777777-7-------------------------3-------|
E|--5-5-------------------------------0-3------5--|


Pero un día de otoño ellos volvieron,
gritaron por altavoces que eran los dueños.

G|--------------------------------------|
D|--------------------------------------|
A|--------------------------3/555--5-5/-|
E|--5-0-55-0-555-0-55-5-----------------|


G|----------14-12------------|
D|-------14-------12-14------|
A|-12-15---------------------|
E|---------------------------|


Ahora el enemigo no es extranjero, y el hijo de Nube Negra es guerrillero


G|-------------------------------------------------------------------|
D|----19-17h19----17h19-19---17h19-19----17h19-19-17-----------------|
A|-17----------17----------------------------------------------------|
E|-------------------------------------------------------------------|


G|------------------------------------|
D|------------------------------------|
A|-----------------------555-555-555--|
E|-33-0-33-0-33-0-333-----------------|

G|---------------------------|
D|---------------------------|
A|---------------------------|
E|-55-0-55-0-55-000-333-5----|


Como nadie sabía lo que pasaba,


G|----------------------------|
D|----------------------------|
A|--3-------------------------|
E|------33-0-33-0-33-0-333-----|

todo lo que pensaron se equivocaban

G|----------------------------------14-12--------|
D|-------------------------------14-------12-14--|
A|-----------55/------------12-15----------------|
E|--x-x-33-x-------------------------------------|


No eran reyes que venían desde el cielo
y ahora toda la Tierra está de duelo.


G|------------------------------------------------|
D|-----17h19-17h19-17h19-17h19h17--------------|
A|--17----------------------------19-17-------|
E|---------------------------------------19-17--------|


G|-------------------------------------------------------|
D|-------------------------------------------------------|
A|--------------------------55---55----------------------|
E|--33-0-33-0-33-0-333--x-x----x----x-x-x-0-55-x-5-------|


Puente

G|---------------------------------------|
D|------------7-7--------------7-7-------|
A|-----------------7-7-------3-----7-7---|
E|-0-55-33---------------0-3-------------|


G|-----------------------------------|
D|------------7-7--------------------|
A|-----------------7-7-------3-------|
E|-0-55-33---------------0-3-----5---|


Interludio:

el bajo empieza en el tercer compas
repitiendo:


G|---------------------------|
D|---------------------------|
A|----7-----7-----5-----5----|
E|--5---5-5---5-3---3-3----3-|

en el compas 11 del interludio hace esto

G|---------------------------|
D|---------------------------|
A|--/7-5-----------------5-----5-----|
E|---------7-5-5-5---5-3---3-3---3-------|


G|----------------------------------------|
D|------------------/7-5--55555555--------|
A|--/7-5----------------------------------|
E|---------7-5-5-5------------------5------|


Como nadie sabía lo que pasaba,


G|----------------------------|
D|----------------------------|
A|--3-------------------------|
E|-----33-0-33-0-33-0-333---|

todo lo que pensaron se equivocaban

G|----------------------------------14-12--------|
D|-------------------------------14-------12-14--|
A|-----------55/------------12-15----------------|
E|--x-x-33-x-------------------------------------|


No eran reyes que venían desde el cielo
y ahora toda la Tierra está de duelo.


G|------------------------------------------------|
D|-----17h19-17h19-17h19-17h19h17--------------|
A|--17----------------------------19-17-------|
E|---------------------------------------19-17--------|


G|-------------------------------------------------------|
D|-------------------------------------------------------|
A|--------------------------55---55------------------------|
E|--33-0-33-0-33-0-333--x-x----x-----x-x-x-0-55-x-5-------|


Puente

G|---------------------------------------|
D|------------7-7---------------7-7-------|
A|-----------------7-7-------3------7-7---|
E|-0-55-33---------------0-3-------------|


G|---------------|
D|---------------|
A|---------------|
E|-0-55-33---5---|


espero q les sirva

cualkier duda o correcion l_casla73@


suerte!!!


dread10

            
            
Suggest correction
Creating personal tab
Creating personal tab
You can edit any tab online and save it as your Personal.

You can edit, replace or remove any tab part or add personal notes – all changes will be seen only by you.

Personal tabs can be accessed anytime from any device, even offline.
Learn more »
Give kudos to tab author, rate the tab!
1 2 3 4 5
comments
print report bad tab
guest
Wanna post a correction for this tab? Suggest correction