Oops, an error
Loading. Please wait.

Papeles Mojados tab

by Chambao
110 views 1 this week
no commentswrite comment
1 2 3 4 5
3 more votes to show rating
add to favorites
×
Save as Personal and add changes to this tab that will be seen only by you. Learn more ›
×
You can save this tab as Personal to edit and correct it or add notes. All changes will be seen only by you. Learn more »
launch autoscroll
font size
0
reset
how to read this tab
guitar tuner
edit
Autoscroll
slow
fast
+/-
esc
set tempo
stop
    Intro.
     LAm
1/------------------------------------------------------------------
2/----------------------3---5--3--------------------------3--5-3
3/--------2--4--5----4----------5--4---- -----2--4--5--4--------5--4-
4/--2---2------------------------------2---2------------------------
    REm
1/------------------3--5--3---------------------3---3---------
2/-------3-5--6---5----------6--5-3---3--5--6-5---6---6---5---
3/-2--2-----------------------------2-------------------------
4/------------------------------------------------------------

    Esta Intro dos veces

LAm
Miles de sombras cada noche trae la marea, *!/--5-3--5----------
                                           *2/---------6--5--3---
  REm                                               MI7
navegan cargaos de ilusiones que en la orilla se quedan.
   LAm
Historias del día día, historias de buena gente **
   REm                                              MI7
Se juegan la vida cansaos, con hambre y un frío que pela

3/-2-2-2-2-4--2-2----------2-4--2-2-2-2-4-2-2---2-4-5-4-2------
4/--------------5--5-5-5-5------------------5-5-----------3----

  REm7                           SOL7
Ahogan sus penas con una candela, ponte tu en su lugar,
REm7                                 SOL7             MI7
el miedo que en sus ojos reflejan, la mar se echo a llorar.

Estri.
LAm                  SOL               FA               MI7
Muchos no llegan, se hunden sus sueños papeles mojaos, papeles sin dueños
LAm                 SOL                 REm7           MI7
Muchos no llegan se hunden sus sueños papeles mojaos, papeles sin
LAm
Dueños

      Repite la Intro


LAm
Frágiles recuerdos a la deriva desgarran el alma**
   REm                                                  MI7
Calaos hasta los huesos el agua los arrastra sin esperanza.
LAm
La impotencia en su garganta con sabor a sal**
REm                                     MI7
una bocanada de aire les da otra oportunidad.

3/-2-2-2-2-4--2-2----------2-4--2-2-2-2-4-2-2---2-4-5-4-2------
4/--------------5--5-5-5-5------------------5-5-----------3----
REm7                           SOL7
Tanta injusticia me desespera, ponte tú en su lugar
REm7                                  SOL7
el miedo que en sus ojos reflejan, la mar se echo a llorar

REm7                          SOL7
Tanta injusticia me desespera ponte tu en su lugar
REm7                               SOL7
el miedo que sus ojos reflejan, la mar se echo a llorar


      Repite Estr.
1/-----------------------------------------------------------
2/--5-6-5--5-6-5-3--5-5-5--5-5--5-3--5-5--5-6--5-6--5--3-5-5--5-

1/-----------------------------------------------------------
2/5-5--5--3--8--8--8--10--8-6--5-3--5-5-5-5-5-5-3--5-5-5-6--5-6-5-

1/-----------------------------------------------------------
2/-3--5-5-5--5-5--5-3--8-8-8--10-8-6-5--3-5-5-5--5-5--5--3-5-5-5--6-

1/-------------------------3-3--3-5--3---------------------------
2/5-6-5-3-5-5--5--5-5-5-3---------------6-5-3-5-5--5--5-5-5-3-5-5-5-6

1/--------------------------3-3--3--5-3---------------------------
2/-5-6-5--3--5-5-5--5-5-5-3--------------6-5-----------------------


       El Rem7 cejilla en 5º traste y Sol7 en el 3º


                              jomecho@

            
            
Suggest correction
Creating personal tab
Creating personal tab
You can edit any tab online and save it as your Personal.

You can edit, replace or remove any tab part or add personal notes – all changes will be seen only by you.

Personal tabs can be accessed anytime from any device, even offline.
Learn more »
Give kudos to tab author, rate the tab!
1 2 3 4 5
comments
print report bad tab
guest
Wanna post a correction for this tab? Suggest correction