Oops, an error
Loading. Please wait.

Nana bass

325 views 9 this week
no commentswrite comment
1 2 3 4 5
x 3
add to favorites
×
Save as Personal and add changes to this tab that will be seen only by you. Learn more ›
×
You can save this tab as Personal to edit and correct it or add notes. All changes will be seen only by you. Learn more »
launch autoscroll
font size
0
reset
guitar tuner
edit
Autoscroll
slow
fast
+/-
esc
set tempo
stop
Author
Difficulty
Tabbed by: 6METAL6BASSIST6
E-mail: petergriffinav@gmail.com

Tuning: EADG

G|----8-------8-------8-------8---|
D|--8-------8-------8-------8-----|
A|6-------6-------6-------6-------|
E|--------------------------------|

G|----8---8-----------6-6-------------8---8-----------6-6---------|
D|--8-----------6---6-----------9---8-----------6---6-----------9-|
A|6---------------4---------------6---------------4---------------|
E|----------------------------------------------------------------|

G|----8---8-----------6-6-------------9------11------13-----15\---|
D|--8-----------6---6-----------9---9------11------13-------------|
A|6---------------4---------------7-------9------11----13-13------|
E|----------------------------------------------------------------|

0:16

G|----8---8-----------6-6-------------8---8-----------6-6---------|
D|--8-----------6---6-----------9---8-----------6---6-----------9-|
A|6---------------4---------------6---------------4---------------|
E|----------------------------------------------------------------|

G|----8---8-----------6-6-------------9------11-------------15\---|
D|--8-----------6---6-----------9---9------11---------------------|
A|6---------------4---------------7-------9---------------13------|
E|----------------------------------------------------------------|

G|----8---8-----------6-6-------------8---8-----------6-6---------|
D|--8-----------6---6-----------9---8-----------6---6-----------9-|
A|6---------------4---------------6---------------4---------------|
E|----------------------------------------------------------------|

G|----8---8-----------6-6-------------9------11------13-----15\---|
D|--8-----------6---6-----------9---9------11------13-------------|
A|6---------------4---------------7-------9------11----13-13------|
E|----------------------------------------------------------------|

0:40

G|----8---8---------------------------8---8-----------6-6---------|
D|--8-----------6-------------------8-----------6---6-----------9-|
A|6---------------4-----------/---6---------------4---------------|
E|----------------------------------------------------------------|

G|--------8-----------6-6-------------9------11------13-----------|
D|--------------6---6-----------9---9------11------13-------------|
A|----------------4---------------7-------9------11----13---------|
E|----------------------------------------------------------------|

G|--------8-----------6-6-------------8---8-----------6-6---------|
D|--------------6---6-----------9---8-----------6---6-----------9-|
A|----------------4---------------6---------------4---------------|
E|----------------------------------------------------------------|

G|----8---8-----------6-6-------------9------11------13--------------|
D|--8-----------6---6-----------9---9------11------13----------------|
A|6---------------4---------------7-------9------11----13-13-13-13-9-|
E|-------------------------------------------------------------------|

1:05

G|----8---8-----------6-6-------------8---8-----------------------|
D|--8-----------6---6-----------9---8-----------6-----------------|
A|6---------------4---------------6---------------4---------------|
E|----------------------------------------------------------------|

G|----8---8-----------6-6-------------9------11-------------------|
D|--8-----------6---6-----------9---9------11---------------------|
A|6---------------4---------------7-------9----------------13-13--|
E|----------------------------------------------------------------|

G|--------8-----------6-6-------------8---8-----------6-6---------|
D|--------------6---6-----------9---8-----------6---6-----------9-|
A|----------------4---------------6---------------4---------------|
E|----------------------------------------------------------------|

G|----8---8-----------6-6-------------9------11------13-----------|
D|--8-----------6---6-----------9---9------11------13-------------|
A|6---------------4---------------7-------9------11----13---------|
E|----------------------------------------------------------------|

1:29

G|--------8-----------6-6-------------8---8-----------------------|
D|--------------6---6-----------9---8-----------6-----------------|
A|----------------4---------------6-------------------------------|
E|----------------------------------------------------------------|

G|--------8-----------6-6-------------9------11------13-----------|
D|--------------6---6-----------9---9------11------13-------------|
A|----------------4---------------7-------9------11----13---------|
E|----------------------------------------------------------------|

G|--------8-----------6-6-------------8---8-----------6-6---------|
D|--------------6---6-----------9---8-----------6---6-----------9-|
A|----------------4---------------6---------------4---------------|
E|----------------------------------------------------------------|

G|----8---8-----------6-6-------------9------11------13--------------|
D|--8-----------6---6-----------9---9------11------13----------------|
A|6---------------4---------------7-------9------11----13-13-13-13-9-|
E|-------------------------------------------------------------------|

1:54

G|--------8-----------6-6-------------8---8-----------6-6---------|
D|--------------6---6-----------9---8-----------6---6-----------9-|
A|----------------4---------------6---------------4---------------|
E|----------------------------------------------------------------|

G|----8---8-----------6-6-------------9------11------13-----15\---|
D|--8-----------6---6-----------9---9------11------13-------------|
A|6---------------4---------------7-------9------11----13-13------|
E|----------------------------------------------------------------|

2:06

G|----8---8-----------6-6-------------8---8-----------6-6---------|
D|--8-----------6---6-----------9---8-----------6---6-----------9-|
A|6---------------4---------------6---------------4---------------|
E|----------------------------------------------------------------|

G|----8---8-----------6-6-------------9------11------13-----15\---|
D|--8-----------6---6-----------9---9------11------13-------------|
A|6---------------4---------------7-------9------11----13-13------|
E|----------------------------------------------------------------|

G|----8---8-----------6-6-------------8---8-----------6-6---------|
D|--8-----------6---6-----------9---8-----------6---6-----------9-|
A|6---------------4---------------6---------------4---------------|
E|----------------------------------------------------------------|

G|----8---8---------------6-----------9------11------13-----15----|
D|--8---------------------------9---9------11------13-------------|
A|6-------------------------------7-------9------11----13-13------|
E|----------------------------------------------------------------|

2:31

G|--------8-----------6-6-------------8---8-----------6-6---------|
D|--------------6---6-----------9---8-----------6---6-----------9-|
A|----------------4---------------6---------------4---------------|
E|----------------------------------------------------------------|

G|----8---8-----------6-6-------------9------11------13-----15\---|
D|--8-----------6---6-----------9---9------11------13-------------|
A|6---------------4---------------7-------9------11----13-13------|
E|----------------------------------------------------------------|

G|----8---------------6-6-------------8---8-----------6-6---------|
D|--8---------------6---------------8-----------6---6-----------9-|
A|6---------------4---------------6---------------4---------------|
E|----------------------------------------------------------------|

G|----8---8-----------6-6-------------9------11------13-----------|
D|--8-----------6---6---------------9------11------13-------------|
A|6---------------4---------------7-------9------11----13---------|
E|----------------------------------------------------------------|

2:55

G|--------8-----------6-6-------------8---8-----------6-6---------|
D|--------------6---6-----------9---8-----------6---6-----------9-|
A|----------------4---------------6---------------4---------------|
E|----------------------------------------------------------------|

G|----8---8-----------6-6-------------9------11------13--------------|
D|--8-----------6---6-----------9---9------11------13----------------|
A|6---------------4---------------7-------9------11----13-13-13-13-9-|
E|-------------------------------------------------------------------|

G|----8---8-----------6-6-------------8---8-----------6-6---------|
D|--8-----------6---6-----------9---8-----------6---6-----------9-|
A|6---------------4---------------6---------------4---------------|
E|----------------------------------------------------------------|

            
            
Suggest correction
Creating personal tab
Creating personal tab
You can edit any tab online and save it as your Personal.

You can edit, replace or remove any tab part or add personal notes – all changes will be seen only by you.

Personal tabs can be accessed anytime from any device, even offline.
Learn more »
Give kudos to tab author, rate the tab!
1 2 3 4 5
comments
print report bad tab
guest
You may want to rate the tab now too:
select rating
Wanna post a correction for this tab? Suggest correction