Oops, an error
Loading. Please wait.

Allegro bass

57 views 3 this week
no commentswrite comment
1 2 3 4 5
3 more votes to show rating
add to favorites
×
Save as Personal and add changes to this tab that will be seen only by you. Learn more ›
×
You can save this tab as Personal to edit and correct it or add notes. All changes will be seen only by you. Learn more »
launch autoscroll
font size
0
reset
guitar tuner
edit
Autoscroll
slow
fast
+/-
esc
set tempo
stop
aqui va el bajo de esta gran cancion que llevo por nombre


intro/ coro
                                              x2
g--6--7--9--11---------12-----------11--(9)--
d--7--9-11--12-----12------12----9--12-(11)--
a--------------10---------------10-----------
e--------------------------------------------

lo de parentesis 1ra parte

verso
                                               x4
g---------------------------------------------
d---------------------------------------------
a---------------------------5-5-5-5-5-5-5-----
e--2-2-2-2-2-2--0-0-0-0-0---------------------

en la parte donde no hay guitarra se adornan con octabas

bridge/ final

g----------------------------------------------
d----------------------------------------------
a--4-4-4--2-2-2---------5-5-5--4-4-4-----------
e----------------2-2-2----------------2-2-2----

eso es toda la cancion
es asi  

intro
verso
coro
verso
coro
bridge
verso
coro
bridge
coro
coro
final


ahora un regalito

invitacion

aqui va un pedaso de la intro de bajo y guitarra

mi

g--11/13--13-13----------------------14-14-14-14/16-16-
d---------------14-14---------14h14--------------------
a----------------------14h15---------------------------
e------------------------------------------------------

fa

creo que todael verso de la guitarra es mi y fa, el que se la sapa que la
suba no sea caguirre. chau

            
            
Suggest correction
Creating personal tab
Creating personal tab
You can edit any tab online and save it as your Personal.

You can edit, replace or remove any tab part or add personal notes – all changes will be seen only by you.

Personal tabs can be accessed anytime from any device, even offline.
Learn more »
Give kudos to tab author, rate the tab!
1 2 3 4 5
comments
print report bad tab
guest
Wanna post a correction for this tab? Suggest correction