Oops, an error
Loading. Please wait.

Barco De Papel bass

380 views 1 this week
no commentswrite comment
1 2 3 4 5
3 more votes to show rating
add to favorites
×
Save as Personal and add changes to this tab that will be seen only by you. Learn more ›
×
You can save this tab as Personal to edit and correct it or add notes. All changes will be seen only by you. Learn more »
launch autoscroll
font size
0
reset
guitar tuner
edit
Autoscroll
slow
fast
+/-
esc
set tempo
stop
Bueno aquí esta la tablatura pa bajo de el braco de papel y
ojala q te buena o sino me mandan un mail para corregirla o nose aquí ta.

Intro

Solo bajo
G------------------------------------------------------------------|
D-----3-5--------------3-5----------------3-5----------------------|
A---5-----3---3------5-----~3---3-------5-----3---3----~5-55-~3-33-|
E-3---------6---5--3----------6---5--33---------6---5-3------------|
Aquí con guitarra y batera
G------------------------------------------------------------------|
D-----3-5--------------3-5----------------3-5----------------------|
A---5-----3---3------5-----~3---3-------5-----3---3----~5-55-~3-33-|
E-3---------6---5--3----------6---5--33---------6---5-3------------|

Verso

En un barco de papel...
G----------------------|
D----------------------|
A---~6--~4--~6--~4-----|
E----------------------|
Pague las...
G----------------------------------------------|
D----------------------------------------------|
A---------------~3-33-------~1-01-------~3-----|
E---~3-33-~1-11-------~1-01-------~1-01--------|
Navegando el ...
G----------------------|
D----------------------|
A---~6--~4--~6--~4-----|
E----------------------|
Me halle perdido...
G--------------------------------------------------|
D--------------------------------------------------|
A---------------~3-33-------~1-01-------~3-333333--|
E---~3-33-~1-11-------~1-01-------~1-01------------|

Coro
Con el viento...
G--------------------------------------------------------|
D--------------------------------------------------------|
A--6-66/1--------6-66/1----------------------------------|
E---------1-11/6--------1-11/6---3-2-1-3-2-1-3-2-1-1111--|
Tus ojitos...
G-----------------------------------------------------------|
D-----------------------------------------------------------|
A--6-66/1--------6-66/1-------------------------------------|
E---------1-11/6--------1-11/6---~3-33-~3-33-~1-11-~1-11----|

Blanca espuma...
G----------------------|
D----------------------|
A---~6--~4--~6--~4-----|
E----------------------|

Sobre la arena...
G----------------------------------------------|
D----------------------------------------------|
A---------------~3-33-------~1-01-------~3-----|
E---~3-33-~1-11-------~1-01-------~1-01--------|
Si yo fuera capitan...
G----------------------|
D----------------------|
A---~6--~4--~6--~4-----|
E----------------------|

Zarpa conmigo...
G--------------------------------------------------|
D--------------------------------------------------|
A---------------~3-33-------~1-01-------~3-333333--|
E---~3-33-~1-11-------~1-01-------~1-01------------|

Coro
Con el viento
G--------------------------------------------------------|
D--------------------------------------------------------|
A--6-66/1--------6-66/1----------------------------------|
E---------1-11/6--------1-11/6---3-2-1-3-2-1-3-2-1-1111--|

Tus ojitos...
G-----------------------------------------------------------|
D-----------------------------------------------------------|
A--6-66/1--------6-66/1-------------------------------------|
E---------1-11/6--------1-11/6---~3-33-~3-33-~1-11-~1-11----|

No hay letra aqui
G----------------------|
D----------------------|
A---~6--~4--~6--~4-----|
E----------------------|

Sirena del mar...
G------------------------------------------------------------------|
D-----3-5--------------3-5----------------3-5----------------------|
A---5-----3---3------5-----~3---3-------5-----3---3----~5-55-~3-33-|
E-3---------6---5--3----------6---5--33---------6---5-3------------|

Aquí con guitarra y batera
G------------------------------------------------------------------|
D-----3-5--------------3-5----------------3-5----------------------|
A---5-----3---3------5-----~3---3-------5-----3---3----~5-55-~3-33-|
E-3---------6---5--3----------6---5--33---------6---5-3------------|

G------------------------------------------------------------------|
D-----3-5--------------3-5----------------3-5----------------------|
A---5-----3---3------5-----~3---3-------5-----3---3----~5-55-~3-33-|
E-3---------6---5--3----------6---5--33---------6---5-3------------|

Coro
Con el viento
G--------------------------------------------------------|
D--------------------------------------------------------|
A--6-66/1--------6-66/1----------------------------------|
E---------1-11/6--------1-11/6---3-2-1-3-2-1-3-2-1-1111--|

Tus ojitos...
G-----------------------------------------------------------|
D-----------------------------------------------------------|
A--6-66/1--------6-66/1-------------------------------------|
E---------1-11/6--------1-11/6---~3-33-~3-33-~1-11-~1-11----|

ohohohoh
G--------------------------------------------------------|
D--------------------------------------------------------|
A--6-66/1--------6-66/1----------------------------------|
E---------1-11/6--------1-11/6---3-2-1-3-2-1-3-2-1-1111--|

Ahahahah               Que fragilidad pequeño barco de papel
G-----------------------------------------------------------|
D-----------------------------------------------------------|
A--6-66/1--------6-66/1-------------------------------------|
E---------1-11/6--------1-11/6---~3-33-~3-33-~1-11-~1-11----|

Ojala q les haya gustado porque este es un temaso
Y cualquier consulta me lo dicen
Saludos pa los xangos de chillan
Viva chile mierda¡¡¡¡  y los chancho en piedra

            
            
Suggest correction
Creating personal tab
Creating personal tab
You can edit any tab online and save it as your Personal.

You can edit, replace or remove any tab part or add personal notes – all changes will be seen only by you.

Personal tabs can be accessed anytime from any device, even offline.
Learn more »
Give kudos to tab author, rate the tab!
1 2 3 4 5
comments
print report bad tab
guest
Wanna post a correction for this tab? Suggest correction