Oops, an error
Loading. Please wait.

Cacho bass

100 views 1 this week
no commentswrite comment
1 2 3 4 5
3 more votes to show rating
add to favorites
×
Save as Personal and add changes to this tab that will be seen only by you. Learn more ›
×
You can save this tab as Personal to edit and correct it or add notes. All changes will be seen only by you. Learn more »
launch autoscroll
font size
0
reset
guitar tuner
edit
Autoscroll
slow
fast
+/-
esc
set tempo
stop
esta cancion no es tan dificil asi es que si eres del chiquero de los chanchos ...
este es el inicio...ojala la entiendas ya que es primera vez que hago esto,
si le encuentras un error no dudes en escribirme...

------------------------------------------------
-----------------0-----------3-3-3-0-2-2-2-0-0-0
-2--0--2--0--2-2---2-0-2-2-0--------------------
------------------------------------------------
esta parte la debes repetir 4 veces,luego viene...

que te a hecho el toro para que le hagas eso...
-----------------------------------------------
--------0-0-0----------------------------------
--2-0-2-------0-----2--------------------------
-----------------------------------------------
(despues de cada estrofa viene lo recien puesto)
como te le ocurre clavarle el pescuezo
tu traje pompozo va a cubrirse de rojo...
cuando te clave en la genital
el tonto no ve,lo grave que es 
----------------------------------------
----------------------------------------
--2-2-0--0-----------0------------------
------------4-4-0-4---------------------
matar su lado animal..
coro:
cacho...yo corneareeeeee,cacho
(este es el coro)
---------------------------------
---0---2---3-3-3-2-2-2-0-0-0-----
-2---2---2-------------------2---
---------------------------------
2veces luego lo mismo de el 1er verso
para ti un trofeo son orejas
para mi es violarme a tu vieja
mire mi amigo si admira a este cretino 
fomenta un acto criminal
que triste es ver como la idiotez 
paga por ver matar
coro...cacho...
----------------------------
-----------9-9-9-9-9-7------
-2-2-2-0-2------------------
----------------------------
cornea no maas cornae no maaaas....
--------------------------------
-----2-3-2-0--------------------
-2-0---------2------------------
--------------------------------
se repite mas o menos unas 15 veces

(en esta parte se repite los mismos acordes que al principio con este canto)
para que un muchacho crezca macho
no debe temer a los cachos
debe pegar un coscacho
en losiko rivall
mi niño no juega con muñecas
eso es de cabros maricuecas
es un hombre hecho y derecho
es un hecho cacho tronchale el pecho!!
(acordes del coro:4 veces)
cornea no mas.....
viva chile mierda y los chancho en piedra

            
            
Suggest correction
Creating personal tab
Creating personal tab
You can edit any tab online and save it as your Personal.

You can edit, replace or remove any tab part or add personal notes – all changes will be seen only by you.

Personal tabs can be accessed anytime from any device, even offline.
Learn more »
Give kudos to tab author, rate the tab!
1 2 3 4 5
comments
print report bad tab
guest
Wanna post a correction for this tab? Suggest correction