Oops, an error
Loading. Please wait.

Calenton tab

version 2
version 2

Whole song

43 views 1 this week
no commentswrite comment
1 2 3 4 5
3 more votes to show rating
add to favorites
×
Save as Personal and add changes to this tab that will be seen only by you. Learn more ›
×
You can save this tab as Personal to edit and correct it or add notes. All changes will be seen only by you. Learn more »
launch autoscroll
font size
0
reset
how to read this tab
guitar tuner
edit
Autoscroll
slow
fast
+/-
esc
set tempo
stop
revise las tablaturas anteriores y me encontre varios errores,
asi q aqui va esta version, espero que les ayude...
Viva chile mierda y los chancho en piedra!!!!!

intro   (parten 4 veces guitarra, luego otras 4 con bateria
y bajo a la vez)

                                    8x
E||---------------------------------||
G||---------------------------------||
B||---------------------------------||    (se repite en
D||---------------------------------||     todos los versos)
A||-6p7---6-76-7---6p7--------------||
E||-----0--------0------------------||


wuaaauu!!

    G5     A5
E--------------------------------
G--------------------------------
B--------------------------------
D--5--5---7--7-------------------
A--5--5---7--7-------------------
E--3--3---5--5-------------------


versos:

Siempre esta donde la puedes ver
mas cerca de lo que puedes creer
te mata su aroma de difuso olor
magicamente manchas tu pantalon

          G5           A5
Ella te tiene ella te deja     [x2]
Calenton!!!!!!!!


Ella es la sopa que tu quieres tomar
solo sueñas de poderte acercar
cuando la ves no le puedes ni hablar
te deja mirar pero nada tocar

         G5            A5
Ella te tiene ella te deja     [x2]
Calenton!!!!!!!


coro:


 F5       G5
Mira su boca brillar
 F5       C5
siente su mente girar
 G5       F5
admite que ella solo
 A5              E5
deja calenton.......


        G5             A5
Ella te tiene ella te deja     [x2]
Calenton


punteo:


E||-----------------------------------------------------------------||
G||--------4p6-----------6p8-----------4p6--------------11p13-------||
B||--3p4-3--------5p65----------3p4-3----------10p11-10-------------||
D||-----------------------------------------------------------------||
A||-----------------------------------------------------------------||
E||-----------------------------------------------------------------||


E||------------------------------------------------||
G||--------6p8-----------4p6----10-10-10-10-10-----||
B||--5p65---------3p4-3----------9--9--9--9--9-----||
D||------------------------------------------------||
A||------------------------------------------------||
E||------------------------------------------------||


E||----------15------15------15------15----15---------||
G||----171717----1717---1717----1717----17----17------||
B||---------------------------------------------------||
D||---------------------------------------------------||
A||---------------------------------------------------||
E||---------------------------------------------------||


Siempre esta donde la puedes ver
mas cerca de lo que puedes creer
te mata su aroma de difuso olor
magicamente manchas tu pantalon

          G5           A5
Ella te tiene ella te deja     [x2]
Calenton!!!!!!!!


coro:


 F5       G5
Mira su boca brillar
 F5       C5
siente su mente girar
 G5       F5
admite que ella solo
 A5              E5
deja calenton.......


        G5             A5
Ella te tiene ella te deja     (varias veces)
Calentonnnnnn!!!!!!!!!!!!!

cuando dice calenton ase hace la guitarra este arreglo:


E||---------------------------------||
G||---------------------------------||
B||---------------------------------||
D||--2-------------2----------------||
A||-----5-2-5-22-5---2--------------||
E||---------------------------------||

se repite las veces q dura el ultimo coro


saludos a todos los q llevan al chancho en el corazon!!

            
            
Suggest correction
Creating personal tab
Creating personal tab
You can edit any tab online and save it as your Personal.

You can edit, replace or remove any tab part or add personal notes – all changes will be seen only by you.

Personal tabs can be accessed anytime from any device, even offline.
Learn more »
Give kudos to tab author, rate the tab!
1 2 3 4 5
comments
print report bad tab
guest
Wanna post a correction for this tab? Suggest correction