Oops, an error
Loading. Please wait.

Cirilo Marruchuca tab

326 views 3 this week
no commentswrite comment
1 2 3 4 5
3 more votes to show rating
add to favorites
×
Save as Personal and add changes to this tab that will be seen only by you. Learn more ›
×
You can save this tab as Personal to edit and correct it or add notes. All changes will be seen only by you. Learn more »
launch autoscroll
font size
0
reset
how to read this tab
guitar tuner
edit
Autoscroll
slow
fast
+/-
esc
set tempo
stop
e-12-12-12-12-10-10-------10---
b-12-12-12-12-10-10-12-12-10---
g-------------------11-11------ x3
d------------------------------
a------------------------------
e------------------------------

e-12-12-12-12-10-10-------------------0
b-12-12-12-12-10-10-12-12-10-10-------0
g-------------------11-11--9--9-12-12-1
d-------------------------------12-12-2
a-------------------------------------2
e-------------------------------------0

yo no soy tan weno para la guitarra como para sacar el solo que
en realidad lo toca angel parra en el disco cuando la tocan en
vivo el solo se reemplaza por un acordeon

mientas suena el solo

B7-E-B7-E-C#m-F#m7-B7-E x2
             E                                     B7-B7
Haaa llegado hasta santiago procedente de Hong Kong
B7
Don Cirilo Murruchuca, primo hermano de Pepe Garrucha
B7
Machuca la yuca, ministro enviado plenipotenciario
B7
De la aduanas guvernativas,               E-E
de los imperios extraordinarios del canton
E                                     B7-B7
Este pobre chino es un músico infernal
B7
Toca la mar de instrumentos de cuerda y de viento
              E-E
todos por igual
 E                                                B7-B7
|: Toca con la mano izquierda la guitarra y el cajón
 B7                                     E-E
 y con la mano derecha ocarina y saxofón   :|x2
 E                                    B7
|: ay chiribaibai bailongo mongo loya actaichi
                                           E-E
chocoloya como coyote chinchulina chantilly   :|x2

Solo B7-E-B7-E-C#m-F#m7-B7-E x2

se repite la misma secuencia de recien a excepcion
de los solos y termina con esto

e-12-12-12-12-10-10-10-10-------------------------------------0-7-
b-12-12-12-12-10-10-10-10-12-12-12-12-10-10-10-10-12-12-12-12-0-9-
g-------------------------11-11-11-11--9--9--9--9-12-12-12-12-1-8-
d-------------------------------------------------------------2-9-
a-------------------------------------------------------------2-7-
e-----------------------------------------------------------------

si les cuesta mucho el ultimo cambio de acordes
pueden hacerlo asi tambien

e-12-12-12-12-10-10-10-10-------------------------------------7-7-
b-12-12-12-12-10-10-10-10-12-12-12-12-10-10-10-10-12-12-12-12-9-9-
g-------------------------11-11-11-11--9--9--9--9-12-12-12-12-9-8-
d-------------------------------------------------------------9-9-
a-------------------------------------------------------------7-7-
e-----------------------------------------------------------------

            
            
Suggest correction
Creating personal tab
Creating personal tab
You can edit any tab online and save it as your Personal.

You can edit, replace or remove any tab part or add personal notes – all changes will be seen only by you.

Personal tabs can be accessed anytime from any device, even offline.
Learn more »
Give kudos to tab author, rate the tab!
1 2 3 4 5
comments
print report bad tab
guest
Wanna post a correction for this tab? Suggest correction